rock
 
|tablatures   |lyrics   |discussion forums   |more tabs @ XGuitar.com

Kiss tabs

Tomorrow guitar tab

TOMORROW (from the KISS CD "UNMASKED")
--------------------

Transcribed by Emil Ortenmark, emil@kissasylum.com

Standard tuning

Comments: This is a very simple song and it is very poppy. I think that the
solo saves this one. It's not a bad song per se, it just never gets going
like I think it should. Towards the end of the song the synth-line in the
chorus is doubled by guitar in places. It's notated here as Riff 2. The solo
is doubled, and both guitars play the same thing up to the last two notes
when they go into harmonies. For simplicity I've notated only the last two
notes of the second guitar on a separate staff connected to the "main" staff.


Key:
/    = slide up
\    = slide down
b    = bend (whole step)
b^   = bend (1/2 step)
b^^  = bend (1 1/2 steps)
pb   = pre-bend
r    = release-bend
t    = tap with righthand finger
h    = hammer-on
p    = pull-off
~    = Vibrato
*    = Natural Harmonic
#(#) = Trill
**   = Artificial Harmonic
x    = Dead notes (no pitch)
P.M. = Palm mute (- -> underneath indicates which notes)
(\)  = Dive w\bar
(/)  = Release w\bar
Tp   = Tap w\plectrum




Rhythm Fig. 1 (P.M. throughout)

E|----------------------------------------------------|
B|----------------------------------------------------|
G|----------------------------------------------------|
D|--9--9--9--9----------------------------------------|
A|--7--7--7--7--9--9--9--9---7--7--7--7--7--7--7--7---|
E|--------------7--7--7--7---5--5--5--5--5--5--5--5---|
   < - 2x - - >< - 2x - - > < - - - - - 2x - - - - >


Rhythm Fig. 2 (P.M. throughout)

E|----------------------------------------------------|
B|----------------------------------------------------|
G|----------------------------------------------------|
D|--9--9--9--9----------------------------------------|
A|--7--7--7--7--9--9--9--9---7--7--7--7--9--9--9--9---|
E|--------------7--7--7--7---5--5--5--5--7--7--7--7---|
   < - 2x - - >< - 2x - - > < - 2x - - >< - 2x - - >




Rhythm Fig. 3 (P.M. throughout)

E|----------------------------------------------------|
B|----------------------------------------------------|
G|----------------------------------------------------|
D|--9--9--9--9--9--9--9--9----------------------------|
A|--7--7--7--7--7--7--7--7---9--9--9--9--9--9--9--9---|
E|---------------------------7--7--7--7--7--7--7--7---|



E|----------------------------------------------------|
B|----------------------------------------------------|
G|----------------------------------------------------|
D|----------------------------------------------------|
A|--7--7--7--7--7--7--7--7--7--7--7--11--11--11--9--9-|
E|--5--5--5--5--5--5--5--5--5--5--5--9---9---9---7--7-|




Rhythm Fig. 4 (P.M. throughout)

E|----------------------------------------------------|
B|----------------------------------------------------|
G|----------------------------------------------------|
D|--9--9--9--9----------------------------------------|
A|--7--7--7--7--9--9--9--9---7--7--7--7--7--9--9--9---|
E|--------------7--7--7--7---5--5--5--5--5--7--7--7---|
    < - 2x - >  < - 2x - >   < - 3x - >




Rhythm Fig. 5 (P.M. throughout)

E|----------------------------------------------------|
B|----------------------------------------------------|
G|----------------------------------------------------|
D|--9--9--9--9----------------------------------------|
A|--7--7--7--7--9--9--9--9---7--7--7--7--7------------|
E|--------------7--7--7--7---5--5--5--5--5------------|
    < - 2x - >  < - 2x - >   < - 3x - >





Rhythm Fig. 6 (P.M. throughout)

E|----------------------------------------------------|
B|----------------------------------------------------|
G|----------------------------------------------------|
D|-9--9--9--9-----------------------------------------|
A|-7--7--7--7--9--9--9--9--11--11--11--11--9--9--9--9-|
E|-------------7--7--7--7--9---9---9---9---7--7--7--7-|
   < - 2x - >  < - 2x - >  < - - 2x - - >  < - 2x - >




Rhythm Fig. 7 (P.M. throughout)

E|----------------------------------------------------|
B|----------------------------------------------------|
G|----------------------------------------------------|
D|----------------------------------------------------|
A|--7--7--7--7--7--7--7--7---4--4--4--4--4--4--4--4---|
E|--5--5--5--5--5--5--5--5---2--2--2--2--2--2--2--2---|
    < - - - - 2x - - - - >   < - - - - 2x - - - - >




Rhythm Fig. 8

E|----------------------------------------------------|
B|-----------------------------------5--5--4----------|
G|--9--------4--4--------2--2--------6--6--4----------|
D|--9--------4--4--------2--2--------6--6--4----------|
A|--7--------2--2--------0--0--------4--4--2----------|
E|----------------------------------------------------|




Rhythm Fig. 9

E|----------------------------------------------------|
B|----------------------------------------------------|
G|--9--------4----------2--------4------4/------------|
D|--9--------4----------2--------4------4/------------|
A|--7--------2----------0--------2------2/------------|
E|----------------------------------------------------|



Rhythm Fig. 10

E|----------------------------------------------------|
B|---------------------------------5--5--4------------|
G|--9--------4----------2----------6--6--4------------|
D|--9--------4----------2----------6--6--4------------|
A|--7--------2----------0----------4--4--2------------|
E|--0-------------------------------------------------|




Rhythm Fig. 11

E|----------------------------------------------------|
B|----------------------------------------------------|
G|--9--------4----------2----------4--4--4------------|
D|--9--------4----------2----------4--4--4------------|
A|--7--------2----------0----------2--2--2------------|
E|----------------------------------------------------|




Rhythm Fig. 12

E|----------------------------------------------------|
B|----------------------------------------------------|
G|--9--------4----------2----------4--4---------------|
D|--9--------4----------2----------4--4---------------|
A|--7--------2----------0----------2--2---------------|
E|----------------------------------------------------|




Rhythm Fig. 13

E|----------------------------------------------------|
B|----------------------------------------------------|
G|--9--------4----------6--------4--------------------|
D|--9--------4----------6--------4--------------------|
A|--7--------2----------4--------2--------------------|
E|--0-------------------------------------------------|




Rhythm Fig. 14

E|----------------------------------------------------|
B|----------------------------------------------------|
G|--2----------------------------9--9-----------------|
D|--2------------6--4------------9--9-----------------|
A|--0------------6--4------------7--7-----------------|
E|---------------4--2------------0--0-----------------|
                P.M.



Rhythm Fig. 15

E|----------------------------------------------------|
B|----------------------------------------------------|
G|--9--------4----------2--2--------6-----4-----------|
D|--9--------4----------2--2--------6-----4-----------|
A|--7--------2----------0--0--------4--4--2-----------|
E|----------------------------------------------------|





Riff 1

E|--5/-7-7\-5---7/-12~--------------------------------|
B|--5/-7-7\-5---7/-12~--------------------------------|
G|----------------------------------------------------|
D|----------------------------------------------------|
A|----------------------------------------------------|
E|----------------------------------------------------|


Riff 2

E|----------------------------------------------------|
B|----------------------------------------------------|
G|----------------------------------4-----------------|
D|--6----------4--------2------2----4-----------------|
A|-----7----------6--------4--------2-----------------|
E|--------7-------------------------------------------|


Solo (Guitar 1 & 2)

E|----------12----------12----------12----------12----|
B|--12--12--12--12------12--12--12--12--12------12----|
G|--14b---------14b---------14b---------14b-----------|
D|----------------------------------------------------|
A|----------------------------------------------------|
E|----------------------------------------------------|




E|--12---------12-------------------------------------|
B|--12---------12-----------12--12--14--12--14--12----|
G|--14b---r14--14b---r14----12--12--14--12--14--12----|
D|----------------------------------------------------|
A|----------------------------------------------------|
E|----------------------------------------------------|




E|----------------------------------------------------|
B|--14b----14p12-----12---14-12-------15----14----12--|
G|--14b----14p12-----12---14-12---/16----14----12-----|
D|---------------14-----------------------------------|
A|----------------------------------------------------|
E|----------------------------------------------------|
                                  Let ring - - - - >



E|----------------------------------------------------|
B|------12--14b-r14p12----------2(0)-4(0)-5(0)-7(0)---|
G|------12--14b-r14p12--------------------------------|
D|--14--------------------14\-------------------------|
A|----------------------------------------------------|
E|----------------------------------------------------|



   Guitar 1
E|----------------------------------------------------|
B|--/9~----7~-----------------------------------------|
G|----------------------------------------------------|
D|----------------------------------------------------|
A|----------------------------------------------------|
E|----------------------------------------------------|
 |                                                    |
 |                                                    |
 |                                                    |
 | Guitar 2                                           |
E|----------------------------------------------------|
B|--/14~---12~----------------------------------------|
G|----------------------------------------------------|
D|----------------------------------------------------|
A|----------------------------------------------------|
E|----------------------------------------------------|
  development and support by
dmitry ivanov