rock
 
|tablatures   |lyrics   |discussion forums   |more tabs @ XGuitar.com

Kiss tabs

Tomorrow bass tab

TOMORROW (from the KISS CD "UNMASKED")
--------------------

Transcribed by Emil Ortenmark, emil@kissasylum.com

Standard tuning

Comments: Not much to this bass-line. It pretty much follows the chords
and inserts a little open E-string and sliding approach tones. I think
Paul played this part himself.


Key:
/    = slide up
\    = slide down
b    = bend (whole step)
b^   = bend (1/2 step)
b^^  = bend (1 1/2 steps)
pb   = pre-bend
r    = release-bend
t    = tap with righthand finger
h    = hammer-on
p    = pull-off
~    = Vibrato
*    = Natural Harmonic
#(#) = Trill
**   = Artificial Harmonic
x    = Dead notes (no pitch)
P.M. = Palm mute (- -> underneath indicates which notes)
(\)  = Dive w\bar
(/)  = Release w\bar
Tp   = Tap w\plectrum



Rhythm Fig. 1

G|----------------------------------------------------|
D|----------------------------------------------------|
A|----------------------------------------------------|
E|--0--0--0--0----0--2/---7--7--7--7----0--7\---------|



G|----------------------------------------------------|
D|----------------------------------------------------|
A|----------------------------------------------------|
E|--5--5--5--5----0--5/---7--7--7--7----0--7/---------|



Rhythm Fig. 2

G|----------------------------------------------------|
D|----------------------------------------------------|
A|----------------------------------------------------|
E|--0--0--0--0----0--2/---7--7--7--7----0--7\---------|



G|----------------------------------------------------|
D|----------------------------------------------------|
A|----------------------------------------------------|
E|--5--5--5--5--5--5--5--5--5--5--5--9----0--7\-------|



Rhythm Fig. 3

G|----------------------------------------------------|
D|----------------------------------------------------|
A|----------------------------------------------------|
E|--0--0--0--0----0--2/---7--7--7--7----0--7\---------|



G|----------------------------------------------------|
D|----------------------------------------------------|
A|----------------------------------------------------|
E|--5--5--5--5--5--5--5--5--5--5--5--5--5--7--7--7----|



Rhythm Fig. 4

G|----------------------------------------------------|
D|----------------------------------------------------|
A|-----------------------0--2--2--2--2--2-----2--1----|
E|--0--0--0--0--0--0--4--------------------2----------|



G|----------------------------------------------------|
D|----------------------------------------------------|
A|----------------------------------------------------|
E|--5--5--5--5--5--5--5--5--5--5--5--5--5--7--7--7----|



G|----------------------------------------------------|
D|----------------------------------------------------|
A|-----------------------0--2--2--2--2--2-----2--1----|
E|--0--0--0--0--0--0--4--------------------2----------|



G|----------------------------------------------------|
D|----------------------------------------------------|
A|----------------------------------------------------|
E|--5--5--5--5--5--5--5--5--5--5--5--5--5-------------|



G|----------------------------------------------------|
D|----------2-----------------------------------------|
A|--2-2-----------------------2--2--2--2--2--2--2--2--|
E|-------------0--0--0--0--0--------------------------|



G|----------------------------------------------------|
D|----------------------------------------------------|
A|--4--4--4--4--4--4--4--4--2--2--2--2--2--2--2/------|
E|----------------------------------------------------|



Rhythm Fig. 5

G|----------------------------------------------------|
D|----------------------------------------------------|
A|--0--0--0--0--0--0--0--0--0--0--0--0--0-------------|
E|-----------------------------------------4--0--2----|



G|----------------------------------------------------|
D|----------------------------------------------------|
A|----------------------------------------------------|
E|----2--2--2--2--2--2--2----2--2--2--2--2--2--2------|



G|----------------------------------------------------|
D|-----2----------------------------------------------|
A|--2-------------------------------------------------|
E|----------------------------------------------------|



Rhythm Fig. 6

G|----------------------------------------------------|
D|----------------------------------------------------|
A|-----------------------0--2--2--2--2--2--2--2--2----|
E|--0--0--0--0--0--0--4-------------------------------|



G|----------------------------------------------------|
D|----------------------------------------------------|
A|--4--4--4--4--4--4--4--0--2--2--2--2--2--2--2--2----|
E|----------------------------------------------------|



Rhythm Fig. 7

G|----------------------------------------------------|
D|----------------------------------------------------|
A|--------------------------2--2--2--2--2--2--2--2----|
E|--0--0--0--0--0--0--0--0----------------------------|



G|----------------------------------------------------|
D|----------------------------------------------------|
A|--4--4--4--4--4--4--4--4--2--2--2--2--2--2--2--2----|
E|----------------------------------------------------|



Rhythm Fig. 8

G|----------------------------------------------------|
D|----------------------------------------------------|
A|--------------------------2--2--2--2--2--2--2--2----|
E|--0--0--0--0--0--0--0--0----------------------------|



G|----------------------------------------------------|
D|----------------------------------------------------|
A|--4--4--4--4--4--4--4--4--2--2--2--2--2-------------|
E|-----------------------------------------0--2--4----|



Riff 1

G|----------------------------------------------------|
D|----------------------------------------------------|
A|----------------------------------------------------|
E|--7/------------------------------------------------|
  development and support by
dmitry ivanov