rock
 
|tablatures   |lyrics   |discussion forums   |more tabs @ XGuitar.com

Kiss tabs

Thou Shalt Not bass tab

THOU SHALT NOT (from the KISS CD "REVENGE")
--------------------

Transcribed by Emil Ortenmark, emil@kissasylum.com

Tuned down 1/2-step


Key:
/    = slide up
\    = slide down
b    = bend (whole step)
b^   = bend (1/2 step)
b^^  = bend (1 1/2 steps)
pb   = pre-bend
r    = release-bend
t    = tap with righthand finger
h    = hammer-on
p    = pull-off
~    = Vibrato
*    = Natural Harmonic
#(#) = Trill
**   = Artificial Harmonic
x    = Dead notes (no pitch)
P.M. = Palm mute (- -> underneath indicates which notes)
(\)  = Dive w\bar
(/)  = Release w\bar
Tp   = Tap w\plectrum




Rhythm Fig. 1

Gb|-----------------------------------13--------------|
Db|----------------------------/14----------14\-12----|
Ab|---------------------------------------------------|
Eb|----0--3--5----5--3--0-----------------------------|




Rhythm Fig. 2

Gb|---------------------------------------------------|
Db|---------------------------------------------------|
Ab|---------------------------------------------------|
Eb|--0--0--0--0--0--0--0--0---0--0--0--0--0--0--2--3--|
    < - - - - 2x - - - - - >


Gb|------------------------12--12------12--12---------|
Db|---------------------------------------------------|
Ab|----------5-----/17\-------------------------------|
Eb|----3--3-------------------------------------------|




Rhythm Fig. 3

Gb|---------------------------------------------------|
Db|---------------------------------------------------|
Ab|---------------------------------------------------|
Eb|--0----0--0--0--5------0----0--0--0--6\-5--3-------|



Gb|---------------------------------------------------|
Db|---------------------------------------------------|
Ab|---------------------------------------------------|
Eb|--0----0--0--0--5------0----0--0--0--5--6--7\------|




Rhythm Fig. 4

Gb|---------------------------------------------------|
Db|---------------------------------------------------|
Ab|-------------------5-------------------------------|
Eb|--7----------5--5-----------------5--5-------------|



Gb|---------------------------------------------------|
Db|----------------------------------12\--------------|
Ab|------------------0--------------------------------|
Eb|--7----------3b------------------------------------|
               1/4-step



Rhythm Fig. 5

Gb|---------------------------------------------------|
Db|---------------------------------------------------|
Ab|---------------------------------------------------|
Eb|----0--3--5----5--3--0-----------------------------|




Rhythm Fig. 6

Gb|---------------------------------------------------|
Db|---------------------------------------------------|
Ab|---------------------------------------------------|
Eb|----0--3--5----0--3--5----5--3--0------------------|



Rhythm Fig. 7

Gb|---------------------------------------------------|
Db|---------------------------------------------------|
Ab|---------------------------------------------------|
Eb|--0--0--0--0--0--0--0--0---0--0--0--0--0-----------|
    < - - - - - 2x - - - - >



Rhythm Fig. 8

Gb|---------------------------------------------------|
Db|---------------------------------------------------|
Ab|---------------------------------------------------|
Eb|--0--0--15\----------------------------------------|



Rhythm Fig. 9

Gb|---------------------------------------------------|
Db|---------------------------------------------------|
Ab|---------------------------------------------------|
Eb|----0--3--5----5--3--0-----------0--2--------------|



Gb|---------------------------------------------------|
Db|---------------------------------------------------|
Ab|-----------5---------------------5-----------------|
Eb|--3--3--3---------------3--3--3--------------------|



Gb|---------------14p-12--------------14------12\(11)-|
Db|--------14-----------------12p-11------14----------|
Ab|--0--0------0--------------------------------------|
Eb|---------------------------------------------------|



Gb|---------------------------------------------------|
Db|---------------------------------------------------|
Ab|-----------5/--------------------5-----------------|
Eb|--3--3--3---------------3--3--3--------------------|



Gb|---------------------------------------------------|
Db|--------5h7---5h7-5--------------------------------|
Ab|--0--0---------------0--2----2--2--2--2--2--2--2---|
Eb|---------------------------------------------------|



Gb|---------------------------------------------------|
Db|---------------------------------------------------|
Ab|--2----------2--2--2--2----------2-----------------|
Eb|---------------------------------------------------|



Gb|---------------------------------------------------|
Db|---------------------------------------------------|
Ab|--2/-----------2--2--2--------2--2--2--------------|
Eb|---------------------------------------------------|



Gb|----12h14---12h14---12h14---14\--------------------|
Db|---------------------------------------------------|
Ab|---------------------------------------------------|
Eb|---------------------------------------------------|




Rhythm Fig. 10

Gb|---------------------------------------------------|
Db|---------------------------------------------------|
Ab|---------------------------------------------------|
Eb|--0--0--0--0--0--0--0--0---0--0--0--0--5--6--7-----|
     < - - - - 3x - - - - >


Gb|---------------------------------------------------|
Db|---------------------------------------------------|
Ab|--------------------------/10----10--9----7----9---|
Eb|--0--0--0--0--0--0--0--0---------------------------|
     < - - - - 3x - - - - >


Gb|---------------------------------------------------|
Db|---------------------------------------------------|
Ab|---------------------------------------------------|
Eb|--0--0--0--0--0--0--0--0---0--0--0--0--5--6--7-----|
     < - - - - 3x - - - - >


Gb|---------------------------------------------------|
Db|---------------------------------------------------|
Ab|---------------------------------------------------|
Eb|--0--0--0--0--0--0--0--0--0--0--0--0--6\-5--3--0---|



Gb|---------------------------------------------------|
Db|---------------------------------------------------|
Ab|---------------------------------------------------|
Eb|--0--0--0--0--0--0--0--0--0--0--0--0--5--6--7------|



Gb|---------------------------------------------------|
Db|---------------------------------------------------|
Ab|---------------------------------------------------|
Eb|--7--7--7--7--7--7--7--7--7---------------7--7--7--|



Gb|---------------12h14---12h14---12h14---12h14---14\-|
Db|---------------------------------------------------|
Ab|---------------------------------------------------|
Eb|--7------------------------------------------------|


Rhythm Fig. 11

Gb|---------------------------------------------------|
Db|---------------------------------------------------|
Ab|--------------------------/10----10--9----7----9---|
Eb|--0--0--0--0--0--0--0--0---------------------------|
     < - - - - 3x - - - - >


Rhythm Fig. 12

Gb|---------------------------------------------------|
Db|---------------------------------------------------|
Ab|--------------------------/10----10--9----5----7---|
Eb|--0--0--0--0--0--0--0--0---------------------------|
     < - - - - 3x - - - - >


Gb|---------------------------------------------------|
Db|---------------------------------------------------|
Ab|---------------------------------------------------|
Eb|--5-----------------0--3--5----0--3--5----5--3--0--|
  development and support by
dmitry ivanov