rock
 
|tablatures   |lyrics   |discussion forums   |more tabs @ XGuitar.com

Kiss tabs

Thief In The Night bass tab

THIEF IN THE NIGHT (from the KISS CD "CRAZY NIGHTS")
--------------------

Transcribed by Emil Ortenmark, emil@kissasylum.com

Standard tuning

Comments: The bass follow the guitar around in this one. No cool fills, no
patented Gene slides (almost) and no high register riffing. Pretty boring
bass if you ask me but still a pretty good song.


Key:
/    = slide up
\    = slide down
b    = bend (whole step)
b^   = bend (1/2 step)
b^^  = bend (1 1/2 steps)
pb   = pre-bend
r    = release-bend
t    = tap with righthand finger
h    = hammer-on
p    = pull-off
~    = Vibrato
*    = Natural Harmonic
#(#) = Trill
**   = Artificial Harmonic
x    = Dead notes (no pitch)
P.M. = Palm mute (- -> underneath indicates which notes)
(\)  = Dive w\bar
(/)  = Release w\bar
Tp   = Tap w\plectrum



Rhythm Fig. 1

G|-----------------------------------------------|
D|-----------------------------------------------|
A|---7---5--7-/12---5---7---7---5--7--3----5/----|
E|-----------------------------------------------|



G|-----------------------------------------------|
D|-----------------------------------------------|
A|---7---5--7-/12---5---7---7---5--7--5\---x-0---|
E|-----------------------------------------------|



Rhythm Fig. 2

G|-----------------------------------------------|
D|-----------------------------------------------|
A|---7---5--7-/12---5---7---7---5--7--3----5/----|
E|-----------------------------------------------|



G|-----------------------------------------------|
D|-----------------------------------------------|
A|---7---5--7-/12---5------3-3-------------------|
E|-----------------------------------------------|




Rhythm Fig. 3

G|-----------------------------------------------|
D|-----------------------------------------------|
A|---7---5--7-/12---5---7---7---5--7--3----5/----|
E|-----------------------------------------------|



G|-----------------------------------------------|
D|------------------------------------x-5--------|
A|---7---5--7-/12---5---7---7---5--7--------x-5--|
E|-----------------------------------------------|




Rhythm Fig. 4

G|-----------------------------------------------|
D|-----------------------------------------------|
A|---7---5--7-/12---5---7---7---5--7--3----5/----|
E|-----------------------------------------------|



G|-----------------------------------------------|
D|-----------------------------------------------|
A|---7---5--7-/12---5---7---7---5--7--3----5-----|
E|-----------------------------------------------|




Rhythm Fig. 5

G|-----------------------------------------------|
D|-----------------------------------------------|
A|-----------------------------------------------|
E|--0-0-----0-0-----------0-0-----0-0------------|




G|-----------------------------------------------|
D|-----------------------------------------------|
A|--3------------x-3----0------------------------|
E|-----------------------------------3~----------|



G|-----------------------------------------------|
D|-----------------------------------------------|
A|-----------------------------------------------|
E|--0-0-----0-0-----------0-0-----0-0------------|



G|-----------------------------------------------|
D|-----------------------------------------------|
A|--3-------------------0-------------(0)--------|
E|---------------x-3----------------3----3-------|



G|-----------------------------------------------|
D|-----------------------------------------------|
A|-----------------------------------------------|
E|--0-0-----0-0-----------0-0-----0-0------------|



G|-----------------------------------------------|
D|---------------5-------------------------------|
A|--3--------------3----5------------------------|
E|-----------------------------------x-3---------|




Rhythm Fig. 6

G|-----------------------------------------------|
D|-----------------------------------------------|
A|--0------------------2-------------------------|
E|-----------------------------------------------|



G|-----------------------------------------------|
D|-----------------------------------------------|
A|--3--------------------------------------------|
E|---------------x-3-----0------------x-3--------|



G|-----------------------------------------------|
D|-----------------------------------------------|
A|--0------------------2-------------------------|
E|-----------------------------------------------|





G|-----------------------------------------------|
D|-----------------------------------------------|
A|---------------------5--5--5-------------------|
E|--3--------------------------------------------|



Rhythm Fig. 7

G|-----------------------------------------------|
D|-----------------------------------------------|
A|-----------------------------------------------|
E|---5---3--5-/7---3---5---5---3--5--3~---3~-----|



G|-----------------------------------------------|
D|-----------------------------------------------|
A|-------------------------------------7-----7---|
E|---5---3--5-/7---3---5---5---3--5-(0)---(0)----|



G|-----------------------------------------------|
D|-----------------------------------------------|
A|-----------------------------------------------|
E|---5---3--5-/7---3---5---5---3--5--3~---3~-----|



G|-----------------------------------------------|
D|-----------------------------------------------|
A|-----------------------------------x-5---x-5---|
E|---5---3--5-/7---3---5---5---3--5--------------|



G|-----------------------------------------------|
D|-----------------------------------------------|
A|--7--------------------------------------------|
E|-----------------------------------------------|



G|-----------------------------------------------|
D|-----------------------------------------------|
A|--3------------------5--5--5--5----------------|
E|-----------------------------------------------|
  development and support by
dmitry ivanov