rock
 
|tablatures   |lyrics   |discussion forums   |more tabs @ XGuitar.com

Kiss tabs

Then She Kissed Me guitar tab

Then She Kissed Me by KISS
From the album Love Gun
--------------------------------------------------------------------




e:---------------------------------------------------------------------------|
B:---------------------------------------------------------------------------|
G:---------------------------------------------------------------------------|
D:---0---4-5-4----0---4-5-4----0---4-5-4-----------------0---4-5-4----0---4-5|
A:------------------------------------------0---4-5-4------------------------|
E:---------------------------------------------------------------------------|





e:---------------------------------------------------------------------------|
B:---------------------------------------------------------------------------|
G:---------------------------------------------------------------------------|
D:-4----0---4-5-4----------------0---4-5-4----0---4-5-4---------------0---4-5|
A:-------------------0---4-5-4--------------------------------2-3-2----------|
E:--------------------------------------------------------3------------------|





e:---------------------------------------------------------------------------|
B:---------------------------------------------------------------------------|
G:---------------------------------------------------------------------------|
D:-4-----------------0---4-5-4----0---4-5-4----------------0---4-5-4----0---4|
A:----------2-3-2------------------------------0---4-5-4---------------------|
E:------3--------------------------------------------------------------------|




            "She kissed me in.."
e:---------------------------------------------------------------------------|
B:------------------------------------------------------------------13b/13---|
G:------------7----7/9---9/11----11/9---9/7----------11--12b/12-12---------11|
D:-5-4-----------------------------------------12-14-------------------------|
A:------------5----5/7---7/9-----9-/7---7/5----------------------------------|
E:---------------------------------------------------------------------------|


                                                           


e:--------------------------------------------------------|
B:--------------------------------------------------------|
G:-9~---9---9/11---11/13----13/11-----9-9-9-9-9-9-9-9-9---|
D:------------------------------------7-7-7-7-7-7-7-7-7---|
A:------7---7/9----9-/11----11/9------0-0-0-0-0-0-0-0-0---|
E:--------------------------------------------------------|




   solo
e:---------------------------------------------------------------------------|
B:----7/5-------------5--8/7-7~---5--5/7--5-5/7-5---7/5-----------5--8/7-7~--|
G:-------7---------------------------------------------7---------------------|
D:-----------4-5-7~---------------------------------------4-5-7~-------------|
A:---------------------------------------------------------------------------|
E:---------------------------------------------------------------------------|


                                              


e:--10/12-10-10~---|-------------------------|
B:-----------------|-------------------------|
G:-----------------|--------------------2----|
D:-----------------|---0---4-5-4----0---2----|
A:-----------------|--------------------0----|
E:-----------------|-------------------------|


  development and support by
dmitry ivanov