rock
 
|tablatures   |lyrics   |discussion forums   |more tabs @ XGuitar.com

Kiss tabs

Then She Kissed Me bass tab

   "And Then She Kissed Me" from the Kiss lp Love Gun
   Bass Tabs by Steve Pomponio  (spomponio@worldnet.att.net)
  *Enter 7th time*
G:---------------------------------------------------------------------------|
D:--4-5-4-----------4-5-4---4-5-4----4-5-4-----------4-5-4---4-5-4-----------|
A:5---------4-5-4-5-------5--------5---------4-5-4-5-------5---------3-2-3-5-|
E:--------5--------------------------------5-----------------------3---------|





                                                        Chorus
G:-----------------------------------------------------:---------------------|
D:5-4-5-----------4-5-4---4-5-4-----------5-4-5---4-5-4:---------------------|
A:--------2-3-2-5-------5---------4-5-4-5-------5------:------7-7-7-7-7-7----|
E:------3-----------------------5----------------------:3-3-3-------------5-5|
                                                        < 4x>


                                                         

                 Play OPEN "A" on outro chorus
G:--------------:after-singing-"And-Then-She-Kissed-Me"-:|
D:--------------:---------------------------------------:|
A:--------------:--------------------------------------0:|
E:-5-5-5-5-5-5-5:---------------------------------------:|
  development and support by
dmitry ivanov