rock
 
|tablatures   |lyrics   |discussion forums   |more tabs @ XGuitar.com

Kiss tabs

The Street Giveth And The Street Taketh Away bass tab

THE STREET GIVETH AND THE STREET TAKETH AWAY (from the KISS CD "HOT IN THE
SHADE")
--------------------

Transcribed by Emil Ortenmark, emil@kissasylum.com

Standard tuning

Comments: Gene pulls out the eight-notes again for this one. Plenty of
little twists and turns along the way makes the bass-line better than
the song as a whole. Kind of a fun part to play too.


Key:
/    = slide up
\    = slide down
b    = bend (whole step)
b^   = bend (1/2 step)
b^^  = bend (1 1/2 steps)
pb   = pre-bend
r    = release-bend
t    = tap with righthand finger
h    = hammer-on
p    = pull-off
~    = Vibrato
*    = Natural Harmonic
#(#) = Trill
**   = Artificial Harmonic
x    = Dead notes (no pitch)
P.M. = Palm mute (- -> underneath indicates which notes)
(\)  = Dive w\bar
(/)  = Release w\bar
Tp   = Tap w\plectrum



Rhythm Fig. 1a

G|----------------------------------------------------|
D|----------------------------------------------------|
A|----------------------------------------------------|
E|--3--3--3--3--3--3--3--3--3--3--3----3--0--3--0-----|



G|----------------------------------------------------|
D|----------------------------------------------------|
A|-----------------0--1--3----3--3--3--3--------------|
E|--1--1--1--1--1-------------------------0--1--2-----|



Rhythm Fig. 1b

G|----------------------------------------------------|
D|-----------------------------------------------3----|
A|----------------------------------------------------|
E|--3--3--3--3--3--3--3--3--3--3--3--3--3--3--3-------|



G|----------------------------------------------------|
D|--3--3--3--3--3-------------------------------------|
A|-----------------0--1--3----3--3--3--3--------------|
E|----------------------------------------0--1--2-----|




Rhythm Fig. 1c

G|----------------------------------------------------|
D|-----------------------------------------------3----|
A|-----------------------------------------1--3-------|
E|--3--3--3--3--3--3--3--3--3--3--3--3--3-------------|



G|----------------------------------------------------|
D|----3--3--3--3--------------------------------------|
A|----------------0--1--3----3------------------------|
E|------------------------------0--0--1--1--2--2------|




Rhythm Fig. 2a

G|----------------------------------------------------|
D|----------------------------------------------------|
A|-----------------------0--1--0-----0----------------|
E|--3--3--3--3--3--3--3-----------3-------3--3--0-----|



G|----------------------------------------------------|
D|----------------------------------------------------|
A|-----------------0--1--3----3--3--3--3--3--0--------|
E|--1--1--1--1--1-------------------------------------|




Rhythm Fig. 2b

G|----------------------------------------------------|
D|----------------------------------------------------|
A|-----------------------0--1--0-----0----------------|
E|--3--3--3--3--3--3--3-----------3-------3--3--0-----|



G|----------------------------------------------------|
D|-------3----3---------------------------------------|
A|---------------0--1--3----3--3--3--3-----0----------|
E|--1-----------------------------------3-------------|



Rhythm Fig. 3a

G|----------------------------------------------------|
D|----------------------------------------------------|
A|--3--5--5\---------3----5--5--3--5--3--0--3---------|
E|----------------------------------------------------|



G|----------------------------------------------------|
D|----------------------------------------------------|
A|----5--5-------------3----5--5--3--5--3--1----------|
E|----------0----1--3---------------------------------|


End 1

G|----------------------------------------------------|
D|----------------------------------------------------|
A|--6--6--5--0--3--0--1-------------------------------|
E|-----------------------1----1--1--1--1--1--1--1-----|



G|----------------------------------------------------|
D|----------------------------------------------------|
A|----------------------------------------------------|
E|--1--1--1--1--1--1--1--3----------------------------|


End 2

G|----------------------------------------3--2--------|
D|----------------------------------------------3-----|
A|--6--6--5--0--3--0--1-------------------------------|
E|-----------------------1----1--1--1--1--------------|



G|----------------------------------------------------|
D|----3--3--3--3--------------------------------------|
A|----------------------------------------------------|
E|----------------1--3--------------------------------|



Rhythm Fig. 3b

G|----------------------------------------------------|
D|----------------------------------------------------|
A|--3--5--5\---------3----5--5--3--5--3--0--3---------|
E|----------------------------------------------------|



G|----------------------------------------------------|
D|----------3----4--5---------------------------------|
A|----5--5-------------3----5--5--3--5--3--1----------|
E|----------------------------------------------------|



G|----------------------------------------------------|
D|----------------------------------------------------|
A|--6--6--5--0--3-----1-------------------------------|
E|-----------------3-----1----1--1--1--1--1--1--1/----|




Rhythm Fig. 4

G|----------------------------------------------------|
D|----------------------------------------------------|
A|--------------------------5--5--7--7----------------|
E|--5--5--3--5----3----0------------------------------|
   < - - - - - - - - - 2x - - - - - - - - >



End 1

G|----------------------------------------------------|
D|----------------------------------------------------|
A|--3----3----3-------5----5--------5-----------------|
E|---------------3------------5h-7-----7--x--5--------|



G|----------------------------------------------------|
D|----------------------------------------------------|
A|--------------------------7--------7\---------------|
E|--5--5--3--5----3----0-------0--0-------------------|




End 2

G|----------------------------------------------------|
D|----------------------------------------------------|
A|--3--3--2----0-------5----------5----5--------------|
E|----------------3---------5h-7----------7-----------|



G|----------------------------------------------------|
D|----------------------------------------------------|
A|--------------------------7--------7\---------------|
E|--5--5--3--5----3----0-------0--0-------------------|





Rhythm Fig. 5

G|----------------------------------------------------|
D|-----------------------------------------------3----|
A|-----------------------------------------3--5-------|
E|--3--3--3--3--3--3--3--3--3--3--3--3--3-------------|



G|-------------2-----2--5----5------------------------|
D|----3--3--3-----3-----------------------------------|
A|----------------------------------------------------|
E|------------------------------0--0--1--0--2--3------|



G|----------------------------------------------------|
D|-----------------------------------------------3----|
A|-----------------------------------------3--5-------|
E|--3--3--3--3--3--3--3--3--3--3--3--3--3-------------|



G|----------------------------------------------------|
D|----3--3--3--3--------------------------------------|
A|----------------0--1--3----3------------------------|
E|------------------------------0--0--1--1--2--2------|



G|----------------------------------------------------|
D|-----------------------------------------------3----|
A|-----------------------------------------3--5-------|
E|--3--3--3--3--3--3--3--3--3--3--3--3--3-------------|



G|----------------------------------------------------|
D|----3--3--3--------3----------------3---------------|
A|-------------3--5-----3----3--3h-5-----5--3---------|
E|---------------------------------------------0------|



G|----------------------------------------------------|
D|----------------------------------------------------|
A|-----------------------0--1--0-----0----------------|
E|--3--3--3--3--3--3--3-----------3-------3--3--0-----|



G|----------------------------------------------------|
D|----------------------------------------------------|
A|-----------------0--1--3----3--3--3--3--3--0--------|
E|--1--1--1--1--1-------------------------------------|






Rhythm Fig. 6

G|----------------------------------------------------|
D|----------------------------------------------------|
A|-----------------------0--1--0-----0----------------|
E|--3--3--3--3--3--3--3-----------3-------3--0--1-----|




G|----------------------------------------------------|
D|--3----3----3---------------------------------------|
A|---------------0--1--3----3--2--0-------------------|
E|-----------------------------------3--0--1--3-------|




G|----------------------------------------------------|
D|----------------------------------------------------|
A|-----------------------0--1--0-----0----------------|
E|--3--3--3--3--3--3--3-----------3-------3--0--1-----|




G|------------2-----2--5----5-------------------------|
D|--3----3-------3------------------------------------|
A|-----------------------------3--0--3----------------|
E|--------------------------------------0--1--3-------|




G|----------------------------------------------------|
D|----------------------------------------------------|
A|-----------------------0--1--0-----0----------0-----|
E|--3--3--3--3--3--3--3-----------3-------3--3--------|



G|-------------------------------3h5-5--3h5-5--5------|
D|--3--3--3--3--3--3--3-------------------------------|
A|-----------------------3----3-----------------------|
E|------------------------------------------------3---|



G|----------------------------------------------------|
D|----------------------------------------------0-----|
A|-----------------------0--1--0-----0----------------|
E|--3--3--3--3--3--3--3-----------3-------3--3--------|



G|--------------------------5--5--5--5--5-/8\-7-------|
D|--3--3--3--3--3--3--3--3----------------------------|
A|----------------------------------------------------|
E|-----------------------------------------------3----|



G|----------------------------------------------------|
D|----------------------------------------------------|
A|-----------------------0--1--0-----0----------------|
E|--3--3--3--3--3--3--3-----------3-------3--0--1-----|



G|----------------------------------------------------|
D|--3--3--3--3--3-------------------------------------|
A|-----------------0--1--3----3-----------------------|
E|-------------------------------0--0--1--0--2--3-----|



G|----------------------------------------------------|
D|----------------------------------------------------|
A|-----------------------0--1--0-----0----------------|
E|--3--3--3--3--3--3--3-----------3-------3--0--1-----|
                                              Fade out
  development and support by
dmitry ivanov