rock
 
|tablatures   |lyrics   |discussion forums   |more tabs @ XGuitar.com

Kiss tabs

The Oath guitar tab

The Oath by KISS
From the album The Elder
--------------------------------------------------------------------



   intro
e:---------------------------------------------------------------------------|
B:---------------------------------------------------------------------------|
G:---9---7---9------------------------------------7-----9---7---9------------|
D:---9---7---9------------------------------------7-----9---7---9------------|
A:---7---5---7------------------------------------5-----7---5---7------------|
E:--------------0-0-0--0-0-0--0-0-0--0-0-0-0-0-0-0------------------0-0-0--0-|





e:---------------------------------------------------------------------------|
B:---------------------------------------------------------------------------|
G:--------------------------------9---7---9----------------------------------|
D:--------------------------------9---7---9----------------------------------|
A:---2/0--4/0--5/0--7/0--10/9-----7---5---7----------------------------------|
E:0------------------------------------------0-0-0--0-0-0--0-0-0--0-0-0-0-0-0|
        ^ pull off



                                                                      "Like a
e:---------------------------------------------------------3-----------------|
B:---------------------------------------------------------3-----------------|
G:---7-----9---7---9---------------------------------------0----/7----5~-----|
D:---7-----9---7---9---------------------------------------0----/7----5~-----|
A:---5-----7---5---7---------------------------------------x----/5----3~-----|
E:-0-------------------0-0-0--0-0-0--0-0-0--0-0-0-0-0-0-0--3-----------------|
                                                           verses



   blade..."                        "Fiery hot..."
e:-------------3-3-3---------------------------------------------------------|
B:-------------3-3-3-----------------------------------------------------12~-|
G:-------------0-0-0----/7----5~------7/9/7------------------------------12~-|
D:-------------0-0-0----/7----5~------7/9/7------------------------------12~-|
A:-------------x-x-x----/5----3~------5/7/5----------------------------------|
E:-------------3-3-3-------------------------------0--0-0-0--0-0-0--0-0-0----|




                                                                          
e:------------------------------------------------------------------------3--|
B:--------------------------------------------------12~-------------------3--|
G:--------------------------------------------------12~-------------------0--|
D:-------------------8---9--------------------------12~-------------------0--|
A:-------------------8---9------------------------------------------------x--|
E:---0--0-0-0-0-0-0--6---7----0--0-0-0--0-0-0--0-0-0------0--0-0-0-0-0-0--3--|


               
               
 repeat          
e:------------|
B:------------|
G:--/7----5~--|
D:--/7----5~--|
A:--/5----3~--|
E:------------|




   "Now compelled by..."                                               "I go
e:---------------------------------------------------------------------------|
B:---------------------------------------------------------------------------|
G:---------------------------------------------------------------------------|
D:---3-3---3-3---3-3---3-3---3-3-3----5-5---5-5---5-5---5-5---5-5-5----3-3---|
A:---3-3---3-3---3-3---3-3---3-3-3----5-5---5-5---5-5---5-5---5-5-5----3-3---|
E:---1-1---1-1---1-1---1-1---1-1-1----3-3---3-3---3-3---3-3---3-3-3----1-1---|




  forth..."                              .."to history.."              "Your
e:---------------------------------------------------------------------------|
B:-----------------------------------------------------------10-10-10~-------|
G:-----------------------------------------------------------9--9--9~--------|
D:3-3---3-3---3-3---3-3-3----5-5---5-5---5-5---5-5---5---6---7--7--9~--------|
A:3-3---3-3---3-3---3-3-3----5-5---5-5---5-5---5-5---5---6---0--0--0~--------|
E:1-1---1-1---1-1---1-1-1----3-3---3-3---3-3---3-3---3---4-------------------|




  glory..."                                       "Your power..."
e:---------------------------------------------------------------------------|
B:----------------------------------------10-10-10~--------------------------|
G:----------------------------------------9--9--9~---------------------------|
D:----------------------------------------7--7--7~---------------------------|
A:---------8~---7~---5~---3~---2--3--2----0--0--0~-------------8~---7~---5~--|
E:---------------------------------------------------------------------------|




                         "Your servant.."
e:---------------------------------------------------------------------------|
B:-----------------10-10-10~-------------------------------------------------|
G:-----------------9--9--9~--------------------------------------------------|
D:-----------------7--7--7~--------------------------------------------------|
A:-3~---2--3--2----0--0--0~----------8~---7~---5~---3~---0---5---------------|
E:-----------------------------------------------------------3-----0--0-0-0--|





e:---------------------------------------------------------------------------|
B:------------12~---------------------------------------------------12~------|
G:------------12~---------------------------------------------------12~------|
D:------------12~--------------------8---9--------------------------12~------|
A:-----------------------------------8---9-----------------------------------|
E:0-0-0--0-0-0-------0--0-0-0-0-0-0--6---7----0--0-0-0--0-0-0--0-0-0------0--|


                               
                               
               to 2nd verse
e:-------------3--------------|
B:-------------3--------------|
G:-------------0----/7----5~--|
D:-------------0----/7----5~--|
A:-------------x----/5----3~--|
E:0-0-0-0-0-0--3--------------|




     solo interlude for 1 guitar
e:---------------------------------------------------------------------------|
B:---15b--15--15b~-----------------------------------------------------------|
G:--------------------14b--14b---12/14/12~-------------------------------9---|
D:-----------------------------------------------------------------------9---|
A:-------------------------------------------2/0--4/0--5/0--7/0--10/9----7---|
E:---------------------------------------------------------------------------|
                                             ^ pull off




e:---------------------------------------------------------------------------|
B:---------------------------------------------------------------------------|
G:7---9-------------------------------------7----9---7---9-------------------|
D:7---9-------------------------------------7----9---7---9-------------------|
A:5---7-------------------------------------5----7---5---7-------------------|
E:--------0-0-0--0-0-0--0-0-0--0-0-0-0-0-0-0-----------------0-0-0--0-0-0--0-|




                      "I gave my word..."                   "There's no...."
e:---------------------------------------------------------------------------|
B:----------------------5~--------6~-------7~------8~---------6~--------7~---|
G:----------9~----7~----5~--------5~-------5~------5~---------6~--------6~---|
D:----------9~----7~----5~--------7~-------7~------7~---------6~--------8~---|
A:----------7~----5~---------------------------------------------------------|
E:0-0-0-0-0------------------------------------------------------------------|


                                                              

                       "And I wonder..."   "..really me"
e:-----------------------------------------------------------|
B:----8~------9~---------------------------------------------|
G:----6~------6~---------------------------------------------|
D:----8~------8~-------6~-------------------9~---------------|
A:---------------------6~-------------------7~---------------|
E:---------------------4~-------------------0~---------------|
                                              to verses



  "Your glory"                    "Your power"                           "the
e:-------------10/9---------------------------10/9-10-12--12b~---15b~--------|
B:---10~------------10-------------10~-----------------------------------10~-|
G:---9~----------------9~--10~-----9~------------------------------------9~--|
D:---7~----------------------------7~------------------------------------7~--|
A:---0~----------------------------0~------------------------------------0~--|
E:---------------------------------------------------------------------------|
   final chorus fills



   servant"                                      outtro 4x
e:---------10/9--------------------------------------------------------------|
B:--------------10-----------------------------------------------------------|
G:-----------------9~---10~--9~--7~--5~--2--0----9---7---9-------------------|
D:-----------------------------------------------9---7---9-------------------|
A:-----------------------------------------------7---5---7-------------------|
E:-----------------------------------------------------------0---0-0-0--0-0-0|


                             
                             

e:---------------------------|
B:--------------15b--15--15b~|
G:-------7-------------------|
D:-------7-------------------|
A:-------5-------------------|
E:--0-0-0--------------------|


  development and support by
dmitry ivanov