rock
 
|tablatures   |lyrics   |discussion forums   |more tabs @ XGuitar.com

Kiss tabs

Tears Are Falling guitar tab

KISS - "Tears Are Falling"

Transcribed by - Filipe Faraco Gallas

HOME PAGE - http://www.geocities.com/CapitolHill/Senate/3233

E-MAILS   - (fgg@datacontrol.com.br) ; (ace_frehley@geocities.com)



     ----------------------------------------------------------------



NOTA IMPORTANTE: Cada nota está exatamente em cima da primeira letra da
palavra cantada juntamente com a nota. Onde há espaços é porque há um
"fading" da palavra ou está entre uma palavra e outra.


(E Tunning)

Key:
/    = slide up
\    = slide down
b    = bend (whole step)
~    = Vibrato
#    = Alavanca
x    = Muted String (Palm Muting)


-----------------------------------------------------------------------------


INTRO

E|----------------------------------------------------|
B|----------------------------------------------------|
G|----------------------------------------------------|
D|----------------------------------------------------|
A|----------------------------------------------------|
E|-0-0-0-0-0-0-0-0-0-0-0-0-0-0-0-0--------------------|
   x x x x x x x x x x x x x x x x

E|----------------------------------------------------|
B|----------------------------------------------------|
G|-9-9---7-9-7----9-9---7-9-7---7-5#--9-7#------------|
D|-9-9-9-7-9-7----9-9-9-7-9-7---7-5#--9-7#------------|
A|-7-7-9-5-7-5----7-7-9-5-7-5---5-3#--7-5#------------|
E|-----7--------------7-------------------------------|



FIG 1

E|----------------------------------------------------|
B|----------------------------------------------------|
G|-9-----------------------7--------------------------|
D|-9-----------------------7--------------------------|
A|-7-----------------------5--------------------------|
E|----------------------------------------------------|
   I red your mind like an open book


E|----------------------------------------------------|
B|----------------------------------------------------|
G|-9------------------------7-------------------------|
D|-9------------------------7-------------------------|
A|-7------------------------5-------------------------|
E|----------------------------------------------------|
   You lost the fire in your eyes


E|----------------------------------------------------|
B|----------------------------------------------------|
G|-9---------------------7----------------------------|
D|-9---------------------7----------------------------|
A|-7---------------------5----------------------------|
E|----------------------------------------------------|
   You turn to me with a different look


-----------------------------------------------------------------------------


BRIDGE

E|----------------------------------------------------|
B|----------------------------------------------------|
G|-5--------------------7-----------------------------|
D|-5--------------------7-----------------------------|
A|-3--------------------5-----------------------------|
E|----------------------------------------------------|
   And then it's raining, looks like it's raining


-----------------------------------------------------------------------------


* CHORUS (repeat 3x)

E|----------------------------------------------------|
B|----------------------------------------------------|
G|-9-9-7-9-7-9-9---7-9--7-5#-9-7----------------------|
D|-9-9-7-9-7-9-9---7-9--7-5#-9-7----------------------|
A|-7-7-5-7-5-7-7---5-7--5-3#-7-5----------------------|
E|-0--0--------0-0------------------------------------|
   Oh  no,     tears are falling


-----------------------------------------------------------------------------


FIG 2

E|----------------------------------------------------|
B|----------------------------------------------------|
G|-9-----------------------7--------------------------|
D|-9-----------------------7--------------------------|
A|-7-----------------------5--------------------------|
E|----------------------------------------------------|
   Something is wrong as i hold you near


E|----------------------------------------------------|
B|----------------------------------------------------|
G|-9------------------------7-----7\------------------|
D|-9------------------------7-----7\------------------|
A|-7------------------------5-----5\------------------|
E|----------------------------------------------------|
   Somebody else holds your heart


E|----------------------------------------------------|
B|----------------------------------------------------|
G|-9-----------------------7--------------------------|
D|-9-----------------------7--------------------------|
A|-7-----------------------5--------------------------|
E|----------------------------------------------------|
   You turn to me with you eyes in tears


-----------------------------------------------------------------------------


BRIDGE

E|----------------------------------------------------|
B|----------------------------------------------------|
G|-5--------------------7-----------------------------|
D|-5--------------------7-----------------------------|
A|-3--------------------5-----------------------------|
E|----------------------------------------------------|
   And then it's raining, feels like it's raining


-----------------------------------------------------------------------------


* CHORUS (repeat 3x)

E|----------------------------------------------------|
B|----------------------------------------------------|
G|-9-9-7-9-7-9-9---7-9--7-5#-9-7----------------------|
D|-9-9-7-9-7-9-9---7-9--7-5#-9-7----------------------|
A|-7-7-5-7-5-7-7---5-7--5-3#-7-5----------------------|
E|-0--0--------0-0------------------------------------|
   Oh  no,     tears are falling


-----------------------------------------------------------------------------


* SOLO

E|---12~----------------------------------------------|
B|------------5/7-7/17-15-12-15~----------------------|
G|-9~--------4----------------------------------------|
D|-------4/5------------------------------------------|
A|----------------------------------------------------|
E|----------------------------------------------------|


E|----------------------------------------------------|
B|----------------------------------------------------|
G|-4/9\4/9/11/12~-11/9-7-9-7--------------------------|
D|--------------------------10-9~--9-7----------------|
A|------------------------------------10-9~-----------|
E|----------------------------------------------------|


E|-------------------------------------------------------------------|
B|-17--15-17-15-------17--15-17-15-------------10--------------------|
G|---16--------16-14----16--------17-16\9-11-12--12-11-9-12-11-9--9~-|
D|--------------------------------------------------------------12---|
A|-------------------------------------------------------------------|
E|-------------------------------------------------------------------|


E|-12--10--------12--10--------------------------------------|
B|---12--12-10-----12--12-10-----------10--------------------|
G|------------11------------11--9-11-12--12-11-9-12-11-9--9~-|
D|------------------------------------------------------12---|
A|-----------------------------------------------------------|
E|-----------------------------------------------------------|



|--12-17-15--15-17-15--15-17-15--15-17-15--15-17-15-19-19b-19-17------------|
|12--------12--------12--------12--------12---------------------17-19-20-17~|
|---------------------------------------------------------------------------|
|---------------------------------------------------------------------------|
|---------------------------------------------------------------------------|
|---------------------------------------------------------------------------|



E|------------------------------------------------------------------------|
B|------------------------------------------------------------------------|
G|-5--------------------7-----------------------------------------5-------|
D|-5--------------------7-----------------------------------------5-------|
A|-3--------------------5-----------------------------------------3-------|
E|------------------------------------------------------------------------|
   And now it's raining, looks like it's raining, someone stole your heart



E|---14-15-17-15-14-12-15-17-15-14-|
B|-13------------------------------|
G|---------------------------------|
D|---------------------------------|
A|---------------------------------|
E|---------------------------------|


E|-17-15-12-17-15-12------| 6x
B|------------------------|
G|------------------------|	<----  REPEAT THIS LICK 6 TIMES VERY FAST
D|------------------------|
A|------------------------|
E|------------------------|
   And now it's raining


E|-17-15-14-15-17-15-17-19-20-19-20-21-20-21b~-------|
B|---------------------------------------------------|
G|---------------------------------------------------|
D|---------------------------------------------------|
A|---------------------------------------------------|
E|---------------------------------------------------|
   Feels like it's raining


-----------------------------------------------------------------------------


* CHORUS (repeat 6x)

E|----------------------------------------------------|
B|----------------------------------------------------|
G|-9-9-7-9-7-9-9---7-9--7-5#-9-7----------------------|
D|-9-9-7-9-7-9-9---7-9--7-5#-9-7----------------------|
A|-7-7-5-7-5-7-7---5-7--5-3#-7-5----------------------|
E|-0--0--------0-0------------------------------------|
   Oh  no,     tears are falling
   Oh  no,     tears are falling
   Oh  no,     tears are falling someone stole your heart
   Oh  no,     tears are falling the're falling from your eyes
   Oh  no,     tears are falling
   Oh  no,     tears are falling falling from your eyes
  development and support by
dmitry ivanov