rock
 
|tablatures   |lyrics   |discussion forums   |more tabs @ XGuitar.com

Kiss tabs

Tears Are Falling bass tab

Kiss - Tears Are Falling


Bass

F#||--------------------------|--------------------------|
C#||--------------------------|--------------------------|
G#||--------------------------|--------------------------|
D#||--2--2--2--2--2--2--2--2--|--2--2--2--2--2--2--2--2--|



--------------------------|--------------------------|
--------------------------|--------------------------|
--------------------------|--------------------------|
--2--2--2--2--2--2--2--2--|--2--2--2--2--2--2--2--2--|



--------------------------|--------------------------|
--------------------------|--------------------------|
--------------------------|--------------------------|
--2--2--2--2--2--2--2--2--|--2--2--2--2--2--2--2--2--|



--------------------------|--------------------------|
--------------------------|--------------------------|
--5--5--5--5--5--5--5--5--|--7--7--7--7--7--7--7--7--|
--------------------------|--------------------------|



--------------------------|--------------------------|
--------------------------|--------------------------|
--------------------------|--------------------------|
--2--2--2--2--2--2--2--2--|--2--2--2--2--2--2--2--2--|



--------------------------|--------------------------|------------------------|
--------------------------|--------------------------|------------------------|
--5--5--5--5--5--5--5--5--|--7--7--7--7--7--7--7--7--|------------------------|
--------------------------|--------------------------|--2--2----2--2--2----2--|



------------------------|------------------------|------------------------|
------------------------|------------------------|------------------------|
---------------------4--|--7--7----7--7--7----7--|--7--7----7--7--7--7----|
--2--2----2--2--2-------|------------------------|------------------------|



------------------------|------------------------|------------------------|
------------------------|------------------------|------------------------|
------------------------|---------------------4--|--7--7----7--7--7----7--|
--2--2----2--2--2----2--|--2--2----2--2--2-------|------------------------|



-------------------------|------------------------|------------------------|
-------------------------|------------------------|------------------------|
--7--7----7--6--6--4--4--|------------------------|---------------------4--|
-------------------------|--2--2----2--2--2----2--|--2--2----2--2--2-------|



------------------------|------------------------|------------------------|
------------------------|------------------------|------------------------|
--7--7----7--7--7----7--|--7--7----7--7--7--7----|--5--5----5--5--5----5--|
------------------------|------------------------|------------------------|



------------------------|------------------------|--------------------------|
------------------------|------------------------|--------------------------|
--5--5----5--5--5----5--|--7--7----7--7--7-------|--------------------------|
------------------------|---------------------0--|--0--0--0--0--0--0--0--0--|



--------------------------|--------------------------|
--------------------------|--------------------------|
--------------------------|--------------------------|
--2--2--2--2--2--2--2--2--|--2--2--2--2--2--2--2--2--|



--------------------------|--------------------------|
--------------------------|--------------------------|
--5--5--5--5--5--5--5--5--|--7--7--7--7--7--7--7--7--|
--------------------------|--------------------------|



--------------------------|--------------------------|
--------------------------|--------------------------|
--------------------------|--------------------------|
--2--2--2--2--2--2--2--2--|--2--2--2--2--2--2--2--2--|



--------------------------|--------------------------|
--------------------------|--------------------------|
--5--5--5--5--5--5--5--5--|--7--7--7--7--7--7--7--7--|
--------------------------|--------------------------|



--------------------------|--------------------------|
--------------------------|--------------------------|
--------------------------|--------------------------|
--2--2--2--2--2--2--2--2--|--2--2--2--2--2--2--2--2--|



--------------------------|--------------------------|------------------------|
--------------------------|--------------------------|------------------------|
--5--5--5--5--5--5--5--5--|--7--7--7--7--7--7--7--7--|------------------------|
--------------------------|--------------------------|--2--2----2--2--2----2--|



------------------------|------------------------|------------------------|
------------------------|------------------------|------------------------|
---------------------4--|--7--7----7--7--7----7--|--7--7----7--7--7--7----|
--2--2----2--2--2-------|------------------------|------------------------|



------------------------|------------------------|------------------------|
------------------------|------------------------|------------------------|
------------------------|---------------------4--|--7--7----7--7--7----7--|
--2--2----2--2--2----2--|--2--2----2--2--2-------|------------------------|



-------------------------|------------------------|------------------------|
-------------------------|------------------------|------------------------|
--7--7----7--6--6--4--4--|------------------------|---------------------4--|
-------------------------|--2--2----2--2--2----2--|--2--2----2--2--2-------|



------------------------|------------------------|------------------------|
------------------------|------------------------|------------------------|
--7--7----7--7--7----7--|--7--7----7--7--7--7----|--5--5----5--5--5----5--|
------------------------|------------------------|------------------------|



------------------------|------------------------|-----7--9-----11-----------|
------------------------|------------------------|---------------------------|
--5--5----5--5--5----5--|--7--7----7--7--7----7--|--7--------x------x--0--0--|
------------------------|------------------------|---------------------------|



--------------------------|--------------------------|
--------------------------|--------------------------|
--------------------------|--------------------------|
--2--2--2--2--2--2--2--2--|--2--2--2--2--2--2--2--2--|



--------------------------|--------------------------|
--------------------------|--------------------------|
--5--5--5--5--5--5--5--5--|--7--7--7--7--7--7--7--7--|
--------------------------|--------------------------|



--------------------------|--------------------------|
--------------------------|--------------------------|
--------------------------|--------------------------|
--2--2--2--2--2--2--2--2--|--2--2--2--2--2--2--2--2--|



--------------------------|--------------------------|
--------------------------|--------------------------|
--5--5--5--5--5--5--5--5--|--7--7--7--7--7--7--7--7--|
--------------------------|--------------------------|



--------------------------|--------------------------|
--------------------------|--------------------------|
--------------------------|--------------------------|
--2--2--2--2--2--2--2--2--|--2--2--2--2--2--2--2--2--|



--------------------------|--------------------------|
--------------------------|--------------------------|
--5--5--5--5--5--5--5--5--|--7--7--7--7--7--7--7--7--|
--------------------------|--------------------------|



--------------------------|--------------------------|
--------------------------|--------------------------|
--------------------------|--------------------------|
--2--2--2--2--2--2--2--2--|--2--2--2--2--2--2--2--2--|



--------------------------|--------------------------|
--------------------------|--------------------------|
--------------------------|--------------------------|
--2--2--2--2--2--2--2--2--|--2--2--2--2--2--2--2--2--|



--------------------------|--------------------------|
--------------------------|--------------------------|
--------------------------|--------------------------|
--2--2--2--2--2--2--2--2--|--2--2--2--2--2--2--2--2--|



--------------------------|--------------------------|
--------------------------|--------------------------|
--------------------------|--------------------------|
--2--2--2--2--2--2--2--2--|--2--2--2--2--2--2--2--2--|



--------------------------|--------------------------|-------------------6----|
--------------------------|--------------------------|--7---------------------|
--------------------------|--------------------------|-----5----5--5--5-------|
--2--2--2--2--2--2--2--2--|--2--2--2--2--2--2--2--2--|------------------------|



--4---------------------|--------------------------|--------------------------|
-----2----2--2h4---2----|--------------------------|--------------------------|
------------------------|--------------------------|--------------------------|
------------------------|--2--2--2--2--2--2--2--2--|--2--2--2--2--2--2--2--2--|



--------------------------|------------------------|------------------------|
--------------------------|--------------2----4----|------------------------|
--------------------------|------------------------|--5--5----5--5--5----5--|
--2--2--2--2--2--2--2--2--|--2--2--2--2------------|------------------------|



------------------------|------------------------|-------9----9--x--9----|
------------------------|------------------------|-----------------------|
--5--5----5--5--5----5--|--7--7----7--7--7----7--|--7--------------------|
------------------------|------------------------|-----------------------|



------------------------|------------------------|------------------------|
------------------------|------------------------|------------------------|
--5--5----5--5--5----5--|--5--5----5--5--5----5--|--7--7----7--7--7----7--|
------------------------|------------------------|------------------------|



--------9-------------13--14--|--------------------------|
--------------14h16-----------|--------------------------|
--7--7-----7------------------|--------------------------|
------------------------------|--2--2--2--2--2--2--2--2--|



--------------------------|--------------------------|
--------------------------|--------------------------|
--------------------------|--5--5--5--5--5--5--5--5--|
--2--2--2--2--2--2--2--2--|--------------------------|



--------------------------|--------------------------|
--------------------------|--------------------------|
--7--7--7--7--7--7--7--7--|--------------------------|
--------------------------|--2--2--2--2--2--2--2--2--|



--------------------------|--------------------------|
--------------------------|--------------------------|
--------------------------|--5--5--5--5--5--5--5--5--|
--2--2--2--2--2--2--2--2--|--------------------------|



--------------------------|--------------------------|
--------------------------|--------------------------|
--7--7--7--7--7--7--7--7--|--------------------------|
--------------------------|--2--2--2--2--2--2--2--2--|



--------------18------------|--------------------------|
--------------------18--19--|--------------------------|
----------------------------|--5--5--5--5--5--5--5--5--|
--2--2--2--2----------------|--------------------------|



--------------------------|--------------------------|-----------6----4--2----|
--------------------------|--------------------------|------------------------|
--7--7--7--7--7--7--7--7--|--------------------------|------------------------|
--------------------------|--2--2--2--2--2--2--2--2--|--2--2--2---------------|



--------------------------|--------------------------|
--------------------------|-----------------------7--|
--5--5--5--5--5--5--5--5--|--7--7--7--7--------7-----|
--------------------------|--------------0--0--------|



--------------------------|-----------9----7--6-----|--------------------------|
--------------------------|----------------------9--|--------------------------|
--------------------------|-------------------------|--5--5--5--5--5--5--5--5--|
--2--2--2--2--2--2--2--2--|--2--2--2----------------|--------------------------|



--------------------------|--------------------------|
--2--2--2--2--2-----------|--------------------------|
--------------------------|--------------------------|
-----------------0--0--0--|--2--2--2--2--2--2--2--2--|



--------------------------|--------------------------|
--------------------------|--------------------------|
--------------------------|--5--5--5--5--5--5--5--5--|
--2--2--2--2--2--2--2--2--|--------------------------|



--------------------------|--------------------------|
--------------------------|--------------------------|
--7--7--7--7--7--7--7--7--|--------------------------|
--------------------------|--2--2--2--2--2--2--2--2--|



--------------------------|--------------------------|
--------------------------|--------------------------|
--------------------------|--5--5--5--5--5--5--5--5--|
--2--2--2--2--2--2--2--2--|--------------------------|



--------------------------||
--------------------------||
--7--7--7--7--7--7--7--7--||
--------------------------||
  development and support by
dmitry ivanov