rock
 
|tablatures   |lyrics   |discussion forums   |more tabs @ XGuitar.com

Kiss tabs

Talk To Me bass tab

TALK TO ME (from the KISS CD "UNMASKED")
--------------------

Transcribed by Emil Ortenmark, emil@kissasylum.com

Tuned down 1/2-step

Comment: Sounds like Ace played this part himself (as he did on TORPEDO
GIRL). The x?s in parenthesis in Rhy. Fig 4 means that they?re played
every once in a while. Listen to see where.

Key:
/    = slide up
\    = slide down
b    = bend (whole step)
b^   = bend (1/2 step)
b^^  = bend (1 1/2 steps)
pb   = pre-bend
r    = release-bend
t    = tap with righthand finger
h    = hammer-on
p    = pull-off
~    = Vibrato
*    = Natural Harmonic
#(#) = Trill
**   = Artificial Harmonic
x    = Dead notes (no pitch)
P.M. = Palm mute (- -> underneath indicates which notes)
(\)  = Dive w\bar
(/)  = Release w\bar
Tp   = Tap w\plectrum




Rhythm Fig. 1

Gb|--------------------------------------------------------|
Db|--------------------------------------------------------|
Ab|--3--3--3--3--3--3--3--3--3--3--3--3--3--3--3--3--------|
Eb|--------------------------------------------------------|



Gb|--------------------------------------------------------|
Db|--------------------------------------------------------|
Ab|--------------------------3--3--3--3--3--3--3--3--------|
Eb|--3--3--3--3--3--3--3--3--------------------------------|



Rhythm Fig. 2

Gb|--------------------------------------------------------|
Db|--------------------------------------------------------|
Ab|--3--3--3--3--3--3--3--3--3--3--3--3--3--3--3--3/-------|
Eb|--------------------------------------------------------|



Gb|--------------------------------------------------------|
Db|--------------------------------------------------------|
Ab|-10--10--10--10--10--10--10--10--3--3--3--3--3--0--1--2-|
Eb|--------------------------------------------------------|



Rhythm Fig. 3

Gb|--------------------------------------------------------|
Db|--------------------------------------------------------|
Ab|--3--3--3--3--3--3--3--3--3--3--3--3--3--3--3--3/-------|
Eb|--------------------------------------------------------|



Gb|--------------------------------------------------------|
Db|--------------------------------------------------------|
Ab|-10--10--10--10--10--10--10--10--3--3--3--3--3--3--3--3-|
Eb|--------------------------------------------------------|



Rhythm Fig. 4

Gb|--------------------------------------------------------|
Db|--------------------------------------------------------|
Ab|--3-----------------------------------------------------|
Eb|-------------------(x)-3------3--3----------------------|



Rhythm Fig. 5

Gb|--------------------------------------------------------|
Db|--------------------------------------------------------|
Ab|--(x)-3------3--3---------------------------------------|
Eb|---------------------(x)-3------3--3--------------------|



Rhythm Fig. 6

Gb|--------------3h5---------------------------------------|
Db|---------5----------------------------------------------|
Ab|--3--------------------3----3----3----3-----------------|
Eb|--------------------------------------------------------|





Rhythm Fig. 7

Gb|--------------3h5---------------------------------------|
Db|-------3h5----------------------------------------------|
Ab|--3--------------------3----3----3----3-----------------|
Eb|--------------------------------------------------------|
   < - - - - - - - - - - - 2x - - - - - - - - >


Gb|--------------1h3---------------------------------------|
Db|---------3----------------------------------------------|
Ab|--1--------------------1----1----1----1-----------------|
Eb|--------------------------------------------------------|
   < - - - - - - - - - - - 2x - - - - - - - - >


Gb|--------------6h8---------------------------------------|
Db|---------8----------------------------------------------|
Ab|--6--------------------6----6----6----6-----------------|
Eb|--------------------------------------------------------|
   < - - - - - - - - - - - 2x - - - - - - - - >



Rhythm Fig. 8

Gb|--------------------------------------------------------|
Db|--------------------------------------------------------|
Ab|--6--6--6--6--6--6--6--6--1--1--1--1--1--1--1--1/-------|
Eb|--------------------------------------------------------|




Gb|--------------------------------------------------------|
Db|-----------------------------8\--------6\---------------|
Ab|--6--6--6--6--6--6--6/-\--------------------------------|
Eb|--------------------------6---------4-------------------|




Rhythm Fig. 9

Gb|--------------------------------------------------------|
Db|--------------------------------------------------------|
Ab|--6--6--6--6--6--6--6--6--------------------------------|
Eb|--------------------------6--6--6--6--6--6--6--6--------|




Gb|--------------------------------------------------------|
Db|-----------------------------8\--------6----------------|
Ab|--6--6--6--6--6--6--6/-\--------------------------------|
Eb|--------------------------6---------4-------------------|
                                      Let ring




Rhythm Fig. 10

Gb|--------------------------------------------------------|
Db|--------------------------------------------------------|
Ab|--6--6--6--6--6-----------------------------------------|
Eb|-----------------3--4--5--6--6--6--6--6--6--6--6--------|



Gb|--------------------------------------------------------|
Db|-----------------------------8\--------6\---------------|
Ab|--6--6--6--6--6--6--6/-\--------------------------------|
Eb|--------------------------6---------4-------------------|



Riff 1

Gb|--------------------------------------------------------|
Db|--------------------------------------------------------|
Ab|--15\---------------------------------------------------|
Eb|--------------------------------------------------------|
  development and support by
dmitry ivanov