rock
 
|tablatures   |lyrics   |discussion forums   |more tabs @ XGuitar.com

Kiss tabs

Take Me bass tab

TAKE ME (from the KISS album "ROCK AND ROLL OVER")
--------------------
Transcribed by Emil Ortenmark (emil@kisstabs.com)

Tuned down 1/2-step

Comments: This tuning is just in between standard and Eb. Try tuning to
the album.

Key:
/    = slide up
\    = slide down
b    = bend (whole step)
b^   = bend (1/2 step)
b^^  = bend (1 1/2 steps)
pb   = pre-bend
r    = release-bend
t    = tap with righthand finger
h    = hammer-on
p    = pull-off
~    = Vibrato
*    = Natural Harmonic
#(#) = Trill
**   = Artificial Harmonic
x    = Dead notes (no pitch)
P.M. = Palm mute (- -> underneath indicates which notes)
(\)  = Dive w\bar
(/)  = Release w\bar
Tp   = Tap w\plectrum

 


Rhythm Fig. 1
                                                    
Gb|---------------------------------------------|
Db|--------------2----------------2-------------|
Ab|--------------------------------------0------|
Eb|--0--0--3--4-------3--0--3--4----------------|


                                                 
Gb|---------------------------------------------|
Db|--------------2------------0-----------------|
Ab|----------------------------------0----------|
Eb|--0--0--3--4-------3--0----------------3--2--|




Rhythm Fig. 2
                                              
Gb|---------------------------------------------|
Db|---------------------------------------------|
Ab|----3--3----3--3--------5--5----5--5---------|
Eb|---------5---------5---------7---------7-----|



Rhythm Fig. 3
                                          
Gb|--4----4----4----4----4----4----4----4-------|
Db|---------------------------------------------|
Ab|---------------------------------------------|
Eb|---------------------------------------------|


                                              
Gb|---------------------------------------------|
Db|---------------------------------------------|
Ab|----3--3----3--3--------3--3----3--3---------|
Eb|---------------------------------------------|


                                          
Gb|--4----4----4----4----4----4----4----4-------|
Db|---------------------------------------------|
Ab|---------------------------------------------|
Eb|---------------------------------------------|


                                              
Gb|---------------------------------------------|
Db|---------------------------------------------|
Ab|----3--3----3--3--------5--5----5--5---------|
Eb|---------------------------------------------|



Rhythm Fig. 4
                                                
Gb|---------------------------------------------|
Db|--------------2------0------0----------------|
Ab|---------------------------------0-----------|
Eb|--0--0--3--4--------------------------3--2---|


                                                
Gb|---------------------------------------------|
Db|--------------2------------------------------|
Ab|---------------------3------5----7/---17\----|
Eb|--0--0--3--4---------------------------------|


                                               
Gb|---------------------------------------------|
Db|--------------2------0------0----------------|
Ab|---------------------------------0-----------|
Eb|--0--0--3--4--------------------------3------|


                                              
Gb|---------------------------------------------|
Db|---------------------------------------------|
Ab|----3--3----3--3--------5--5----5--5---------|
Eb|---------------------------------------------|


Rhythm Fig. 5
                                                 
Gb|---------------------------------------------|
Db|--------------2----------------2-------------|
Ab|--------------------------------------0------|
Eb|--0--0--3--4-------3--0--3--4----------------|


                                                
Gb|---------------------------------------------|
Db|--------------2------------0-----------------|
Ab|----------------------------------0----0-----|
Eb|--0--0--3--4-------3--0----------------------|


                                              
Gb|---------------------------------------------|
Db|---------------------------------------------|
Ab|--2----2----2----2----2----2----2----2-------|
Eb|---------------------------------------------|


                                           
Gb|---------------------------------------------|
Db|---------------------------------------------|
Ab|--3----3----3---------------5----------------|
Eb|-------------------3-------------------------|


Rhythm Fig. 6
                                                 
Gb|---------------------------------------------|
Db|--------------2----------------2-------------|
Ab|--------------------------------------0------|
Eb|--0--0--3--4-------3--0--3--4----------------|
   < - - - - - - - - - 3x - - - - - - - - - >

                                                 
Gb|---------------------------------------------|
Db|--------------2------------0-----------------|
Ab|----------------------------------0----------|
Eb|--0--0--3--4-------3--0----------------3--2--|



Rhythm Fig. 7
                                                 
Gb|------------7h9---7h9------------------------|
Db|----------------------0------0---------------|
Ab|----------------------------------0----------|
Eb|--0----0-------------------------------3--2--|


                                                 
Gb|------------7h9---7h9------------------------|
Db|---------------------------------------------|
Ab|-----------------------------5----7/---17\---|
Eb|--0----0--------------8----------------------|


                                                 
Gb|------------7h9---7h9------------------------|
Db|----------------------0------0---------------|
Ab|----------------------------------0----------|
Eb|--0----0-------------------------------3--2--|


                                               
Gb|---------------------------------------------|
Db|---------------------------------------------|
Ab|----3--3----3--3--------5--5----5--5---------|
Eb|---------------------------------------------|




Take me
Paul Stanley, Sean Delaney

[Rhy. Fig 2]
[Rhy. Fig 1]

[Rhy. Fig 1]
Put your hand in my pocket 
Grab onto my rocket 
Feels so good to see you receive 
Baby got to know 
Do do you want to go 
How you gonna make me feel 

[Rhy. Fig 3]
I said, Go baby, you make me feel ah, ah, ah, ah yeah 
Oh, baby, you make me feel ah, ah, ah, ah yeah

[Rhy. Fig 4]
So take me any way you want me 
Just break me any way you can 
Take me any way you want me, now 
Make me feel like a man, yeah 

[Rhy. Fig 1]

[Rhy. Fig 1]
Sittin' in the back 
Her head down in my lap 
The moonlight shinin' down on her hair 
The radio was playin' 
Her fingertips were strayin' 
Her mama didn't she was there, no 

[Rhy. Fig 3]
She said, Oh baby, you make me feel ah, ah, ah, ah yeah 
Oh, baby, you make me feel ah, ah, ah, ah yeah 


[Rhy. Fig 4]
So take me any way you want me 
Just break me any way you can 
Take me any way you want me, now 
Make me feel like a man 
Make me feel it, baby 

[Rhy. Fig 5]
[Rhy. Fig 6]

[Rhy. Fig 7]
Ahh, take me any way you want me 
Just break me any way you can 
Take me any way you want me, now 
Ah, ah, ah, ah yeah, take me baby 
Ah, ah, ah, ah 

[Rhy. Fig 4]
Take me, take me, take me, love me 
Take me, squeeze me, hug me, any way you can 
Take me any way you want me, now 
Ah, ah, ah, ah yeah, ah ah ah ah 
Take me, whoo, any way you want me 
Squeeze me, you can have it any way you can 
Take me, hold me baby, come on, now, come on, now 
Ah, ah, ah, ah yeah 
  development and support by
dmitry ivanov