rock
 
|tablatures   |lyrics   |discussion forums   |more tabs @ XGuitar.com

Kiss tabs

Take It Off bass tab

TAKE IT OFF (from the KISS CD "REVENGE")
--------------------

Transcribed by Emil Ortenmark, emil@kissasylum.com

Tuned down a whole-step to D


Key:
/    = slide up
\    = slide down
b    = bend (whole step)
b^   = bend (1/2 step)
b^^  = bend (1 1/2 steps)
pb   = pre-bend
r    = release-bend
t    = tap with righthand finger
h    = hammer-on
p    = pull-off
~    = Vibrato
*    = Natural Harmonic
#(#) = Trill
**   = Artificial Harmonic
x    = Dead notes (no pitch)
P.M. = Palm mute (- -> underneath indicates which notes)
(\)  = Dive w\bar
(/)  = Release w\bar
Tp   = Tap w\plectrum





Rhythm Fig. 1

F|--12------------12h14p12----------------------------|
C|---------------------------12------------12\--------|
G|----------------------------------------------------|
D|----------------------------------------------------|



F|----------------------------------------------------|
C|----------------------------------------------------|
G|--3--3--3--3--3--3--3--3---3--3--3--3--3--3--3--3---|
D|----------------------------------------------------|





Rhythm Fig. 2a

F|----------------------------------------------------|
C|----------------------------------------------------|
G|--3--0--0--3--0--0--5-------------------------------|
D|----------------------------2--2--3--3--------------|



F|----------------------------------------------------|
C|----------------------------------------------------|
G|--0--0--0--3--0-------------------------------------|
D|--------------------------2--2--3--3----------------|




Rhythm Fig. 2b

F|----------------------------------------------------|
C|----------------------------------------------------|
G|--3--0--0--3--0--0--5-------------------------------|
D|----------------------------2--2--3--3--------------|



F|----------------------------------------------------|
C|----------------------------------------------------|
G|--0--0--0--3--0-------------------------------------|
D|------------------/17\------2--2--3--3--------------|




Rhythm Fig. 2c

F|----------------------------------------------------|
C|----------------------------------------------------|
G|--3--0--0--3--0--0--5-------------------------------|
D|----------------------------2--2--3--3--------------|



F|----------------------------------------------------|
C|----------------------------------------------------|
G|--0--0--0--3--0-------------------------------------|
D|--------------------------2--2--3--3/---------------|




Rhythm Fig. 3a

F|----------------------------------------------------|
C|----------------------------------------------------|
G|---------------------------5------------------------|
D|--0--0--0--0--0--0--0--0----------------------------|
  < - - - - - 2x - - - - >



Rhythm Fig. 3b

F|----------------------------------------------------|
C|----------------------------------------------------|
G|---------------------------5------------------------|
D|--0--0--0--0--0--0--0--0----------0----0-2--2--3----|
  < - - - - - 2x - - - - >



Rhythm Fig. 4a

F|----------------------------------------------------|
C|----------------------------------------------------|
G|--0--0--0--0--0--0--0--0----------------------------|
D|---------------------------3--3--3--3--3--3--3--3---|
   < - - - - - 2x - - - - > < - - - - - 2x - - - - >


F|----------------------------------------------------|
C|---------------------------3-----3--5---------------|
G|--5--5--5--5--5--5--5--5------5---------------------|
D|-----------------------------------------0--2--3----|



Rhythm Fig. 4b

F|----------------------------------------------------|
C|----------------------------------------------------|
G|--0--0--0--0--0--0--0--0----------------------------|
D|---------------------------3--3--3--3--3--3--3--3---|
   < - - - - - 2x - - - - > < - - - - - 2x - - - - >


F|----------------------------------------------------|
C|----------------------------------------------------|
G|--5--5--5--5--5--5--5--5----------------------(0)---|
D|---------------------------1--0--1--3----0--3-------|




Rhythm Fig. 5

F|----------------------------------------------------|
C|----------------------------------------------------|
G|--0--0--0-------------------------------------------|
D|-----------17\------------3------3----3-------------|



Rhythm Fig. 6a

F|----------------------------------------------------|
C|----------------------------------------------------|
G|--0------0--------0-------0--------5----5-----------|
D|------------3--0-------------3--0-------------------|



F|----------------------------------------------------|
C|----------------------------------------------------|
G|--0------0--------0-------0--------5----------------|
D|------------3--0-------------3--0-------------------|


Rhyhtm Fig. 6b

F|----------------------------------------------------|
C|----------------------------------------------------|
G|--0------0--------0-------0--------5----5-----------|
D|------------3--0-------------3--0-------------------|



F|----------------------------------------------------|
C|----------------------------------------------------|
G|----------------------------------------------------|
D|--0----------------/17\-----------------------------|
                        Slow slide


Rhythm Fig. 6c

F|----------------------------------------------------|
C|----------------------------------------------------|
G|--0------0--------0-------0--------5----5-----------|
D|------------3--0-------------3--0-------------------|



F|----------------------------------------------------|
C|----------------------------------------------------|
G|--0------0--------0-------0-------------------------|
D|------------3--0-------------3--0--3----------------|



F|----------------------------------------------------|
C|----------------------------------------------------|
G|--5-------------------------------------------------|
D|-----------5---------5\-----------------------------|


Rhythm Fig. 7

F|----------------------------------------------------|
C|-------------------3--------------------------------|
G|--3---------3--3-----3---1--------------------------|
D|---------3------------------------1----1--3---------|



F|----------------------------------------------------|
C|----------------------------------------------------|
G|--3---------3--3----3-2--1--------------------------|
D|---------3------------------------1-----------------|




F|----------------------------------------------------|
C|----------------------------------------------------|
G|--3---------3--3-------1-----------------1----------|
D|---------3----------------------1----1h3---3--------|



F|----------------------------------------------------|
C|----------------------------------------------------|
G|--3---------3--5--7\5-3---1--------3----------------|
D|---------3------------------------------------------|



F|----------------------------------------------------|
C|----------------------------------------------------|
G|--3--5\--------------3--5\--------------------------|
D|----------------------------------------------------|



F|----------------------------------------------------|
C|----------------------------------------------------|
G|--5--7\--------------7--7--7--7--7--7--7--7---------|
D|----------------------------------------------------|



Rhythm Fig. 8

F|----------------------------------------------------|
C|----------------------------------------------------|
G|--0-------------------------------------------------|
D|------------3---------2-----1-----3-----------------|



F|----------------------------------------------------|
C|----------------------------------------------------|
G|--0-------------------------------------------------|
D|---------/17\--------3------3----3------------------|
  development and support by
dmitry ivanov