rock
 
|tablatures   |lyrics   |discussion forums   |more tabs @ XGuitar.com

Kiss tabs

Sweet Pain guitar tab

Sweet Pain by KISS
From the album Destroyer
--------------------------------------------------------------------



                                              repeat
e:----------------------------------------------------------|
B:----------------------------------------------------------|
G:----6-6---7-7---12-12---11~------6-6---7-7---10-10---9~---|
D:----7-7---7-7---12-12---12~------7-7---7-7---10-10---10~--|
A:----0-0---0-0---0--0----0--------0-0---0-0---0--0----0----|
E:----------------------------------------------------------|




    verses                             repeat
e:---------------------------------------------------------------------------|
B:----------3-3--------------------------------------------4-3---------6-5---|
G:----------2-2---------------2-2----3-3----5-5--------3---3-3-----5---5-5---|
D:--5-5-----0-0------0--2-0---2-2----3-3----5-5------5---5-------7---7-------|
A:--5-5-----0-0---0-2------2--0-0----1-1----3-3------------------------------|
E:--3-3----------------------------------------------------------------------|


                                                                   

       solo rhythm
e:|---------------------------------------------------------------|
B:|---------------------------------------------------------------|
G:|---------------------------2---------------------------2----2--|
D:|-------------------2--2-5--0----------------------2--2-0-5--0--|
A:|---2---2-4--5----5-0--0-3----3~---2---2-4--5----5-0--0---3-----|
E:|---0---0-2--3-0--3----------------0---0-2--3-0--3--------------|




   solo
e:---------------------------------------------------------------------------|
B:--15b-15-13-15-13-----------------15b-15b-15b-15b/15-13--15-13--15b~-------|
G:-----------------14--14/12-------------------------------------------------|
D:--------------------------14~------------------------------------------12/14
A:---------------------------------------------------------------------------|
E:---------------------------------------------------------------------------|


                                                     


e:--------------------------------------------------|
B:--------------------------------------------------|
G:-12----12---14/12--12-14/12-------12/14/12---12b~-|
D:-----14----------14--------14-12----------14------|
A:--------------------------------------------------|
E:--------------------------------------------------|





e:--15b/15-12--------------------------------------|
B:-----------15--15/13--13-15b--15-13-15b/15-13----|
G:--------------------14-----------------------14--|
D:-------------------------------------------------|
A:-------------------------------------------------|
E:-------------------------------------------------|





e:-15b~----22b~------------------------------------15b-15b-15b-15b/15-12--12-|
B:----------------15-13---13-15-15-15b/15-13----------------------------15---|
G:----------------------14------------------14~------------------------------|
D:---------------------------------------------------------------------------|
A:---------------------------------------------------------------------------|
E:---------------------------------------------------------------------------|


                             
                             

e:15b~---22b-22-20----------|
B:----------------22-21-20--|
G:--------------------------|
D:--------------------------|
A:--------------------------|
E:--------------------------|




  outtro fill
e:----------------15-----14----------------------13------12---|
B:--13-----15-----18b~~--17b~~-----12-----13-----16b~~---15b~~|
G:--15b~~--17b~~-------------------14b~~--15b~~---------------|
D:------------------------------------------------------------|
A:------------------------------------------------------------|
E:------------------------------------------------------------|


  development and support by
dmitry ivanov