rock
 
|tablatures   |lyrics   |discussion forums   |more tabs @ XGuitar.com

Kiss tabs

Sure Know Something guitar tab

Sure Know Something by KISS
From the album Dynasty
--------------------------------------------------------------------



    harmonic     bass line intro                        "I've been.."
e:-!12!----------------------------------------------------------------------|
B:-!12!------------------------------8--------8-----------------------8---8--|
G:--------------------------------------7-------7---------------------7---7--|
D:-----------------------------------------9------9-------------------9---9--|
A:---------------------------------------------------------------------------|
E:---------------------------------------------------------------------------|




                                                              repeat for vers
e:---------------------------------------------------------------------------|
B:8---8-----8---8--8---8---8--8----8--8--5--5----5---8--8---8--8----8--------|
G:7---7-----7---9--9---9---9--9----9--9--7--7----7---9--9---9--9-------7-----|
D:9---9-----9---9--9---9---9--9----9--9--7--7----7---9--9---9--9----------9--|
A:---------------------------------------------------------------------------|
E:---------------------------------------------------------------------------|


            
            
  es        
e:---------|
B:8--------|
G:--7------|
D:----9----|
A:---------|
E:---------|




    "Just the same....."                                 "I've been a..."
e:---------------------------------------------------------------------------|
B:---------------------------------------------------------------------------|
G:--------------------------------------------5--5---7--7--7--7--7--7--7--7--|
D:--------------------------------------------5--5---7--7--7--7--7--7--7--7--|
A:------------------------7--7--7--7--7--7----3--3---5--5--5--5--5--5--5--5--|
E:---0--0--0--0--0--0--0--0--0--0--0--0--0-----------------------------------|


                                                           

                   "Sure know...."               to verse 2
e:--------------------------------------------------------|
B:--------------------------------------------------------|
G:7--7--7--7--7--------5---------------5------------5/7~--|
D:7--7--7--7--7-----5-----4--2------5-----4--2------5/7~--|
A:5--5--5--5--5-----3-----2--0------3-----2--0------3/5~--|
E:------------------------------3---------------3---------|




     solo
e:------------------------------------------------------12-----12----12------|
B:-----------------3--5--3--5--5/7~--7b~-5----8/10-10b----10-----10----8----12
G:---2/4~~-----2-4-----------------------------------------------------------|
D:----------2-4--------------------------------------------------------------|
A:---------------------------------------------------------------------------|
E:---------------------------------------------------------------------------|


                                               


e:-----12/15/12-12-----------------------17b~~~|
B:/15-------------15--15b~----17b/17-15--------|
G:---------------------------------------------|
D:---------------------------------------------|
A:---------------------------------------------|
E:---------------------------------------------|


  development and support by
dmitry ivanov