rock
 
|tablatures   |lyrics   |discussion forums   |more tabs @ XGuitar.com

Kiss tabs

Strutter guitar tab

Strutter by KISS
From the Album KISS
--------------------------------------------------------------------



  guitar 1  (rhythm 1)
e:---------------------------------------------------------------------------|
B:---------------------------333---------------------------------------------|
G:---444---------------------222-24242---222--2--2---444---------------------|
D:---444-46464---555---------000-00000---222--2--2---444-46464---555---------|
A:---222-22222---555-57555---------------000-00-00---222-22222---555-57555---|
E:---------------333-33333---------------------------------------333-33333---|
  guitar 2
e:---------------------------------------------------------------------------|
B:---121212~-----888~--------141414~-------10-10-10--121212~-----888~--------|
G:---111111~-----777~--------131313~-------9--9--9---111111~-----777~--------|
D:---9-9-9-~-----555~--------0-0-0-~-------7--7--7---9-9-9-~-----555~--------|
A:---------------------------------------000-00-00---------------------------|
E:---------------------------------------------------------------------------|



                mute    "I know at thing......"       "Everybody says..."
e:-------------------------------------------------|-------------------------|
B:333----------------------------------------------|-------------------------|
G:222-24242--2242224---444-------------------------|---4----4-4--------------|
D:000-00000--0000000---444-------------------------|---4----2-2-------5---5--|
A:---------------------222-------------------------|---2----2-2-------5---3--|
E:-------------------------------------------------|------------------3---3--|
                       repeat similar patterns
e:---------------------------------------------------------------------------|
B:141414~----14-1414---121212~-----------------------------------------------|
G:131313~----13-1313---111111~-----------------------------------------------|
D:0-0-0-~----0--0-0----9-9-9-~-----------------------------------------------|
A:---------------------------------------------------------------------------|
E:---------------------------------------------------------------------------|



                                       chorus "Strutter..."
e:---------------------------------------------------------------------------|
B:---------------------------------------------------------------------------|
G:----------4---4-4----------------------------------------------------------|
D:5--5------4---4-4-------5---5--5--5----------------------------------------|
A:3--3------2---2-2-------5---5--5--5----------0--2--2~------0--2-2---0--2-2-|
E:3--3--------------------3---3--3--3----------------------------------------|
                                               rhythm 2
e:---------------------------------------------------------------------------|
B:---------------------------------------------------------------------------|
G:---------------------------------------------2--4--4~------2--4-4---2--4-4-|
D:---------------------------------------------2--4--4~------2--4-4---2--4-4-|
A:---------------------------------------------------------------------------|
E:---------------------------------------------------------------------------|



                                    "Strutter"
e:---------------------------------------------------------------------------|
B:---------------------------------------------------------------------------|
G:---------------------------------------------------------------------------|
D:---------------------------------------------------------------------------|
A:--2--5--7--7~----5--2---0---------0--2--2--------0--2-2---0--2-2-----2--5--|
E:---------------------------2-----------------------------------------------|

e:---------------------------------------------------------------------------|
B:---------------------------------------------------------------------------|
G:--4--7--9--9~----7--4---2---------2--4--4--------2--4-4---2--4-4-----4--7--|
D:--4--7--9--9~----7--4---2--4------2--4--4--------2--4-4---2--4-4-----4--7--|
A:---------------------------4-----------------------------------------------|
E:---------------------------------------------------------------------------|



                                    solo(over rhythm 2)
e:---------------------------------------------------------------------------|
B:------------------3--------------------------------------------------------|
G:------------------2--2---444------9b(11)---9b(11)---9b(11)---9b(11)---9b(11|
D:--------------5---0--2---444-----------------------------------------------|
A:7--7-------5--3------0---222-----------------------------------------------|
E:-----------3---------------------------------------------------------------|

e:---------------------------------------------------------------------------|
B:-------------------------121212--------------------------------------------|
G:9--9-------0--5---7--2---111111--------------------------------------------|
D:9--9-------0--5---7--2---9-9-9---------------------------------------------|
A:---------------------------------------------------------------------------|
E:---------------------------------------------------------------------------|




e:---------------------------------------------------------------------------|
B:---------------------------------------------------------------------------|
G:)---9b(11)---9b(11)-9b(11)-9b(11)-9b(11)-9b(11)-9b(11)-9b(11)-9b(11)-9-7---|
D:-------------------------------------------------------------------------9-|
A:---------------------------------------------------------------------------|
E:---------------------------------------------------------------------------|


         hammer-ons
e:---------------------------------------------------------------------------|
B:---------------------------------------------------------------------------|
G:7---10/7\10/7\10/7\10/7\10/7\10/7\10/7\10/7----10b(12)---10b(12)~---10b(12)|
D:---------------------------------------------------------------------------|
A:---------------------------------------------------------------------------|
E:---------------------------------------------------------------------------|



e:---------------------------------------------------------------------------|
B:---------------------------------------------------------------------------|
G:-----10b(12)--10b(12)---b(10)--b(10)----7/10\7-----------7---7-------------|
D:-----------------------------------------------9b(10)-9---------9b(10)-7---|
A:--------------------------------------------------------------------------9|
E:---------------------------------------------------------------------------|



e:---------------------------------------------------------------------------|
B:-------------19--22--19/22\19------19--22b---22b---22b---22b---22b-22b-22b-|
G:----------21b------------------21b-----------------------------------------|
D:--7------------------------------------------------------------------------|
A:---------------------------------------------------------------------------|
E:---------------------------------------------------------------------------|




e:-------------------------------------22b-22-19--------------|
B:22b-22-19----19--22--22-19----19---------------22b-22-19----|
G:----------21---------------21----------------------------21b|
D:------------------------------------------------------------|
A:------------------------------------------------------------|
E:------------------------------------------------------------|

  development and support by
dmitry ivanov