rock
 
|tablatures   |lyrics   |discussion forums   |more tabs @ XGuitar.com

Kiss tabs

Strange Ways guitar tab

Strange Ways by KISS
From the album Hotter Than Hell
--------------------------------------------------------------------


  intro/verses  rhythm 1
e:---------------------------------------------------------------------------|
B:---------------------------------------------------------------------------|
G:-----------------3~----3-3-------------------8~----7-7-----------------3~--|
D:-------------3---3~----3-3------5--3--5--8---8~----7-7-------------3---3~--|
A:----5--3--5--1---1~----1-1------3--1--3--6---6~----5-5------5-3-5--1---1~--|
E:----3--1--3-------------------------------------------------3-1-3----------|


                                      


e:-----------------------------------|
B:-----------------------------------|
G:--3-3-------------------8~----7-7--|
D:--3-3------5--3--5--8---8~----7-7--|
A:--1-1------3--1--3--6---6~----5-5--|
E:-----------------------------------|




   rhythm 2
e:---------------------------------------------------------------------------|
B:-------------10b(11)-10b(11)~-----------------------------14b(15)-14b(15)~-|
G:------------------------------5--3----5--3---------------------------------|
D:------------------------------5--3----5--3---------------------------------|
A:---5--3--5--------------------3--1----3--1------5--3--5--------------------|
E:---3--1--3--------------------------------------3--1--3--------------------|





e:-------------------------------------------------------------------------14|
B:-----------------------------10b(12)-10b(12)~------------------------------|
G:---------------------------------------------------------------------------|
D:10-12-12--3~-----------------------------------5--3----5--3----------------|
A:8--10-10--3~-------5--3--5---------------------3--1----3--1-----5--3--5----|
E:----------1~-------3--1--3--------------------------------------3--1--3----|


                                        


e:b(15)-14b(15)~-----------------------|
B:-------------------------------------|
G:-------------------------------------|
D:----------------12--10-----12--10----|
A:----------------10--8--10--10--8--10-|
E:-----------------------8----------8--|




   rhythm for solo
e:---------------------------------------------------------------------------|
B:---------------------------------------------------------------------------|
G:---------------------------------------------------------------------------|
D:-------------------3~--------3--5-5------10-12-12--3~--------------------3~|
A:----3--5-5------5--1~--------1--3-3------8--10-10--3~-----3--5-5------5--1~|
E:----1--3-3------3----------------------------------1~-----1--3-3------3----|


                                          

                next repeat rhythm 1 2x
e:------------------------------------|---|
B:------------------------------------|---|
G:------------------------------------|---|
D:------3--5-5------10-12-12--3~------|---|
A:------1--3-3------8--10-10--3~------|---|
E:----------------------------1~------|---|


  development and support by
dmitry ivanov