rock
 
|tablatures   |lyrics   |discussion forums   |more tabs @ XGuitar.com

Kiss tabs

Strange Ways bass tab

Kiss, "Strange Ways"
From "Hotter than Hell"
Written by Ace Frehley
Transcribed by Glen Goodman

All strings tuned down 1/2 step.
Intro
---------------------------
--------------------1-1-0-0
------1-1-1-1-3-1-3--------
3-1-3----------------------
<-----2X------------------>

Verse
---------------------------
--------------------1-1-0-0
------1-1-1-1-3-1-3--------
3-1-3----------------------
<----------4X------------->

Chorus
-------------------------------------------------------------
--------------------3-5-5-------------------------5-3---5-3--
------3-1-3-1-----------------------3-1-3-1-----------3-----3
3-1-3---------3-1-3-------1---3-1-3---------3-1-3------------

Solo
-----------------------------
-----------------------3-5-5-
-----------1-3-1-3-3-1-------
1-3-3-/12\------------------1
<----------2X--------------->     
Then play verse 2X

Then repeat chorus


Submitted by:  Glen Goodman` (Giza3@AOL.com)
  development and support by
dmitry ivanov