rock
 
|tablatures   |lyrics   |discussion forums   |more tabs @ XGuitar.com

Kiss tabs

Speeding Back To My Baby guitar tab

Speedin' Back To My Baby by Ace Frehley
From Ace's solo album w/KISS
--------------------------------------------------------------------



  intro lick
e:-------------3--------3------------3------------------------3--------3-----|
B:----------3-----6--3------------3-----6--3---------------3-----6--3--------|
G:---5b(7)-----------------5b(7)--------------------5b(7)-----------------5b(|
D:---------------------------------------------------------------------------|
A:---------------------------------------------------------------------------|
E:---------------------------------------------------------------------------|
  2nd guitar on 16th fret-same pattern



                                "I'm drivin' down the road...."
e:-------3--------3----------------------------------------------------------|
B:----3-----6--3-------------------------------------------------------------|
G:7)-----------------5b(7)--5--------------------------------------5--55--5--|
D:-------------------------------5--55--55--55--55--55--55--55--5--5--55--5--|
A:-------------------------------5--55--55--55--55--55--55--55--5--3--33--3--|
E:-------------------------------3--33--33--33--33--33--33--33--3------------|




                              pre-chorus  "maybe i should turn"
e:---------------------------------------------------------------------------|
B:---------------------------------------------------------------------------|
G:5------7--77--7--7--7-------7/9--9--7--9--9----7/9--9--7--9----9/10-10-9--1|
D:3---5--7--77--7--5--4-------7/9--9--7--9--9----7/9--9--7--9----9/10-10-9--1|
A:---33--5--55--5-------------5/7--7--5--7--7----5/7--7--5--7----7/8--8--7--8|
E:---------------------------------------------------------------------------|
              repeat

                                                    

           chorus "Speedin' back to my baby...."
e:-------------------------------------------------|
B:-------------------------------------------------|
G:0-10-------5--5--5--5--4-----5/7--7--5--7--------|
D:0-10-------5--5--5--5--5-----3/5--5--3--5--------|
A:--8-------3---3--3--3----------------------------|
E:-------------------------------------------------|
                 repeat



   solo
e:-------17b(20)-17b(18)-17--------------------------------------------------|
B:--------------------------------18-----------15-18-15/18/15--15-18~-18b~---|
G:---------------------------17b~~~~~17b----17b--------------17--------------|
D:---------------------------------------------------------------------------|
A:---------------------------------------------------------------------------|
E:---------------------------------------------------------------------------|





e:-----15-18-15/18/15--15-18~-18b~-------------------------------------------|
B:--18b--------------18---------------15/18/15---15--15/18/15---15--15/18/15-|
G:--------------------------------------------17b------------17b-------------|
D:---------------------------------------------------------------------------|
A:---------------------------------------------------------------------------|
E:---------------------------------------------------------------------------|





e:---------------------------------------------------------------------------|
B:---15-15/18/15---15---15--17--18--17--15--17--18--17--15-------------------|
G:17b-----------17b-----15--17--18--17--15--17--18--17--15---------5b/5-3-5b/|
D:---------------------------------------------------------15~---------------|
A:---------------------------------------------------------------------------|
E:---------------------------------------------------------------------------|


                                                          


e:--------------------------------------------------------|
B:--------------------------------------------------------|
G:5-3-5b/5-3-5b/5-3----17b~~---15-14~----12/10---10/9---7~|
D:--------------------------------------------------------|
A:--------------------------------------------------------|
E:--------------------------------------------------------|


  development and support by
dmitry ivanov