rock
 
|tablatures   |lyrics   |discussion forums   |more tabs @ XGuitar.com

Kiss tabs

Snow Blind guitar tab

Snow Blind by Ace Frehley
From Ace's solo album w/KISS
--------------------------------------------------------------------



  intro/chorus
e:---------------------------------------------------------------------------|
B:---------------------------------------------------------------------------|
G:--------5---------4---------3---------2----------5---------4---------3-----|
D:--------5---------4---------3---------2----------5---------4---------3-----|
A:--0-0-0-----0-0-0-----0-0-0-----0-0-0------0-0-0-----0-0-0-----0-0-0------0|
E:---------------------------------------------------------------------------|




              verses             "It's so hard..."
e:---------------------------------------------------------------------------|
B:---------------------------------------------------------------------------|
G:-----2-----2--2----2-------5---5~---------------------2--2----2------------|
D:-----2-----2--2----2-------5---5~-----------------x-x-2--2----2------------|
A:-0-0-------0--0----0--5----3---3~-----------------x-x-0--0----0--5---3---3-|
E:----------------------3------------------------------------------3---1---1-|




                                                              to chorus
e:--------------------------------------------------------------------------|
B:--------------------------------------------------------------------------|
G:-----------------------5--5----------2--2----2----------------------------|
D:-----------------------5--3------x-x-2--2----2----------------------------|
A:-----3/7-7--7----7--5--3--3------x-x-0--0----0--5---3---3-----5-----5--6--|
E:-----1/5-5--5----5--3---------------------------3---1---1-----3-----3--4--|




   solo
e:----------5---------5---------5-----------------------5---------5---------5|
B:----5--5--5---5--5--5---5--5--5-----------------5--5--5---5--5--5---5--5--5|
G:----7b--------7b--------7b--------7/5--7--5~----7b--------7b--------7b-----|
D:-------------------------------------7-------------------------------------|
A:---------------------------------------------------------------------------|
E:---------------------------------------------------------------------------|





e:-----------------------12----------12----------12--------12----------------|
B:--8b~-----------12--12-12---12--12-12---12--12--------12-------------------|
G:-------5--------14b---------14b---------14b-------14b-------14b~-----------|
D:---------7---------------------------------------------------------14-12---|
A:-------------------------------------------------------------------------14|
E:---------------------------------------------------------------------------|





e:----------------12----------12---------12-------12--------------5-5-----5-5|
B:---------12--12-12---12--12-12------12-------12-----15b~--------5-5-----5-5|
G:-12~-----14b---------14b---------14b------14b----------------7b------7b----|
D:---------------------------------------------------------------------------|
A:---------------------------------------------------------------------------|
E:---------------------------------------------------------------------------|





e:-----5-5-----5-5------5-5----------------------------5-5-----5-5-----5-5---|
B:-----5-5-----5-5------5-5----------------------------5-5-----5-5-----5-5---|
G:--7b------7b-------7b-------5/7/5--5--7-5---------7b------7b------7b------7|
D:----------------------------------7-------7--------------------------------|
A:--------------------------------------------5/3----------------------------|
E:---------------------------------------------------------------------------|





e:--5-5-----5-5-----------------------------------------------------12-----12|
B:--5-5-----5-5---8/5--5--8/5--5---8/5--5---------------------------12-----12|
G:b------7b-----------7-------7--------7--7-5-7/5---5-----------14b----14b---|
D:------------------------------------------------7---7/5/7------------------|
A:---------------------------------------------------------------------------|
E:---------------------------------------------------------------------------|





e:--15/12--12-------------------------------------12----12--15/12--12--------|
B:-------15--15/12-15/12--12----------------------12----12-------15--15-12---|
G:----------------------14--14-12--14b-12-14---14b---14b---------------------|
D:---------------------------------------------------------------------------|
A:---------------------------------------------------------------------------|
E:---------------------------------------------------------------------------|





e:-------------------12----12--15/12--12-------------------------------------|
B:12b-12-------------12----12-------15--15/12-15/12--12----------------------|
G:------14-12-----14b---14b------------------------14--14-12--14b-12-14----14|
D:---------------------------------------------------------------------------|
A:---------------------------------------------------------------------------|
E:---------------------------------------------------------------------------|





e:-12----12--15/12--12-------------------------------------------------------|
B:-12----12-------15--15-12--12b-12------------------------------------------|
G:b---14b--------------------------14-12---12-14b/14/12-12-14b/14/12-12-14b/1|
D:---------------------------------------------------------------------------|
A:---------------------------------------------------------------------------|
E:---------------------------------------------------------------------------|


                              
                              
             etc
e:----------------------------|
B:----------------------------|
G:4-12-12-14b/14-12--14-14b~~~|
D:----------------------------|
A:----------------------------|
E:----------------------------|


  development and support by
dmitry ivanov