rock
 
|tablatures   |lyrics   |discussion forums   |more tabs @ XGuitar.com

Kiss tabs

Silver Spoon guitar tab

SILVER SPOON (from the KISS CD "HOT IN THE SHADE")
--------------------

Transcribed by Emil Ortenmark, emil@kissasylum.com

Tuned down 1/2-step with capo at 2nd fret

Comments: Like the other songs on this album this is slightly "out of
tune". On top of that there¥s a capo at the 2nd fret and plenty of slide.
The solo is mixed incredibly low so it¥s hard to hear what¥s going on.
I gave it my best shot. At the end, when the gospel-like choir kicks in
there is probably guitar going on in the back but I find it impossible
to hear. I can¥t tell if it¥s voice or guitar at times. I¥ve left that
part out here. (Thanks to kirk590722@aol.com for help with desiphering
the gospel-like background vocals.)

Key:
/    = slide up
\    = slide down
b    = bend (whole step)

b^   = bend (1/2 step)
b^^  = bend (1 1/2 steps)
pb   = pre-bend
r    = release-bend
t    = tap with righthand finger
h    = hammer-on
p    = pull-off
~    = Vibrato
*    = Natural Harmonic
#(#) = Trill
**   = Artificial Harmonic
x    = Dead notes (no pitch)
P.M. = Palm mute (- -> underneath indicates which notes)
(\)  = Dive w\bar
(/)  = Release w\bar
Tp   = Tap w\plectrum



Rhythm Fig. 1

E|------------------------------------------------|
B|------------------------------------------------|
G|--------0---------------------------------------|
D|-----3------------------------------------------|
A|--1--------3------------------------------------|
E|------------------------------------------------|
          Let ring



Rhythm Fig. 2

E|------------------------------------------------|
B|------------------------------------------------|
G|-------------------------7\-5-----5/7-----------|
D|--7----7----5/-7--5------5\-3--0--3/5------5----|
A|--5----5----3/-5--3--0------------------0--3----|
E|------------------------------------------------|



E|------------------------------------------------|
B|------------------------------------------------|
G|-------------------------------0----------0-----|
D|--7----7----5/-7--5---------3----------5-----5--|
A|--5----5----3/-5--3--0---1--------3-------------|
E|------------------------------------------------|
                           Let ring - - - - - - >


Rhythm Fig. 3a

E|------------------------------------------------|
B|--------------------3---------------------------|
G|--3-----------------0------------5--------------|
D|--3-----------------0------------5--------------|
A|--1------------------------------3--------------|
E|--------------------3---------------------------|



E|------------------------------------------------|
B|------------------------------------------------|
G|--3-----------------5--5--5--5--5---------------|
D|--3-----------------5--5--5--5--5---------------|
A|--1-----------------3--3--3--3--3---------------|
E|------------------------------------------------|



Rhythm Fig. 3b

E|------------------------------------------------|
B|--------------------3---------------------------|
G|--3-----------------0------------5--------------|
D|--3-----------------0------------5--------------|
A|--1------------------------------3--------------|
E|--------------------3---------------------------|
   < - - - - - - - - 3x - - - - - - - - >


E|------------------------------------------------|
B|------------------------------------------------|
G|--3---------------5--5--5--5--5--5--5--5--5-----|
D|--3---------------5--5--5--5--5--5--5--5--5-----|
A|--1---------------3--3--3--3--3--3--3--3--3--x\-|
E|---------------------------------------------x\-|




Rhythm Fig. 4

E|------------------------------------------------|
B|------------------------------------------------|
G|--10-----------------6--------8-----------------|
D|--10-----------------6--------8-----------------|
A|--8------------------4--------6-----------------|
E|------------------------------------------------|



E|------------------------------------------------|
B|------------------------------------------------|
G|--10----8------10-----8-------6--------8--------|
D|--10-------10------10----10---6--------8--------|
A|--8----------------------8----4--------6--------|
E|------------------------------------------------|
   Let ring - - - - - - >


E|------------------------------------------------|
B|------------------------------------------------|
G|--3---------6--6--8-------8----------8--8--10---|
D|--3---------6--6--8-------8----------8--8--10---|
A|--1---------4--4--6-------6----------6--6--8----|
E|--------------------------6---------------------|



E|------------------------------------------------|
B|------------------------------------------------|
G|--7-----------------------0---------------------|
D|--7--------------------3------------------------|
A|--5-----------------1--------3------------------|
E|------------------------------------------------|
                            Let ring


Rhythm Fig. 5 (clean, let ring)

E|------------------------------------------------|
B|------------------------------------------------|
G|-------0---------0------------------------------|
D|----0---------0---------------------------------|
A|------------------------------------------------|
E|------------------------------------------------|




Intro solo

E|------------------------------------------------|
B|------------------------------------------------|
G|--/7---------9b^--9b-^--9b^-r9-p7-9---10-7-10b--|
D|--/7--------------------------------------------|
A|------------------------------------------------|
E|------------------------------------------------|
  w/ slide                                   1/4-step


E|--13b~-----13----10-10-----------10-------------|
B|--------------13-------13b~---------13-10-------|
G|------------------------------------------------|
D|------------------------------------------------|
A|------------------------------------------------|
E|------------------------------------------------|



E|------------------------------------------------|
B|------------------------------------------------|
G|--12b-r12-p10-----------------------------------|
D|--------------12-10-----------------------------|
A|--------------------12-11-10-8----8-8b-r8~------|
E|-------------------------------10---------------|



Riff 1

E|------------------------------------------------|
B|------------------------------------------------|
G|--5/---10~--------------------------------------|
D|--5/---10~--------------------------------------|
A|------------------------------------------------|
E|------------------------------------------------|
    Slow w/ slide


Riff 2

E|------------------------------------------10~---|
B|------------------------------------------------|
G|--/7----------10p9-10p9--10p9p7---10--10--------|
D|--/7--------------------------------------------|
A|------------------------------------------------|
E|------------------------------------------------|
   w/ slide



Riff 3

E|------------------------------------------------|
B|------------------------------------------------|
G|-------------9b^--9b-^--9b^-r9-p7-10--10-7-10b--|
D|------------------------------------------------|
A|------------------------------------------------|
E|------------------------------------------------|
                                             1/4-step



E|--------------------------10~----13p10~---------|
B|------------------------------------------------|
G|--pb12-r12-10b----------------------------------|
D|------------------------------------------------|


A|------------------------------------------------|
E|------------------------------------------------|
             Slow bend

Solo

E|--/10-10-10-10-10-10-10-10~-------------/10-10-10-10-10-10~---|
B|--/10-10-10-10-10-10-10-10~-------------/10-10-10-10-10-10~---|
G|------------------------------12\10-9~------------------------|
D|--------------------------------------------------------------|
A|--------------------------------------------------------------|
E|--------------------------------------------------------------|



E|-------------13\10~-----------10--------10-----10---0---------|
B|-------10/13---------------10--------10--------10---13\12-----|
G|--9/10-----------------12b-------12b-------12b----------------|
D|--------------------------------------------------------------|
A|--------------------------------------------------------------|
E|--------------------------------------------------------------|
                             Let ring - - - - - - >



E|--0---0------0-----------------10--------10-----10----13------|
B|--12--12-----12-------------10--------10--------10------------|
G|----------------12~-----12b-------12b-------12b---------------|
D|--------------------------------------------------------------|
A|--------------------------------------------------------------|
E|--------------------------------------------------------------|
                              Let ring - - - - - - >



E|--13/15---15~---15---15b-r15-p13---13h15p13\12---12h13p12\10--|
B|--------------------------------------------------------------|
G|--------------------------------------------------------------|
D|--------------------------------------------------------------|
A|--------------------------------------------------------------|
E|--------------------------------------------------------------|
                   Pick only first



E|--------------------------------------------------------------|
B|--13\---------------------------------------------------------|
G|----------------------------------------------10-10-----------|
D|----------------------------------10-10-12-12-----------------|
A|------------------8-8-10-10-12-12-----------------------------|
E|------------10-10---------------------------------------------|
              P.M. - - - - - - - - - - - - - - - - - >




E|------10----------------------------13b/17b^-r13~/r17~--------|
B|---------13p10----13p10----13p10------------------------------|
G|--12b----------12-------12-------12---------------------------|
D|--------------------------------------------------------------|
A|--------------------------------------------------------------|
E|--------------------------------------------------------------|
  development and support by
dmitry ivanov