rock
 
|tablatures   |lyrics   |discussion forums   |more tabs @ XGuitar.com

Kiss tabs

Silver Spoon bass tab

SILVER SPOON (from the KISS CD "HOT IN THE SHADE")
--------------------

Transcribed by Emil Ortenmark, emil@kissasylum.com

Tuned down 1/2-step

Comments: This is a standard, pumping eight-note line that I think Paul
(or maybe Bruce) played. Nothing to it. There are a few little variants
on Rhy. Fig 2 that I haven't bothered with. Basically it's all about
moving the E at the 7th fret to other rhythmic positions. (Thanks to
kirk590722@aol.com for help with desiphering the gospel-like background
vocals.)

Key:
/    = slide up
\    = slide down
b    = bend (whole step)
b^   = bend (1/2 step)
b^^  = bend (1 1/2 steps)
pb   = pre-bend
r    = release-bend
t    = tap with righthand finger
h    = hammer-on
p    = pull-off
~    = Vibrato
*    = Natural Harmonic
#(#) = Trill
**   = Artificial Harmonic
x    = Dead notes (no pitch)
P.M. = Palm mute (- -> underneath indicates which notes)
(\)  = Dive w\bar
(/)  = Release w\bar
Tp   = Tap w\plectrum


Rhythm Fig. 1

Gb|--------------------------------------------------|
Db|--------------------------------------------------|
Ab|--3-----3--5--------------------3-----3--5--------|
Eb|-----3-----------------------------3--------------|



Gb|--------------------------------------------------|
Db|--------------------------------------------------|
Ab|----5--5--5--5--5--5--5/--------------------------|
Eb|--------------------------------------------------|



Rhythm Fig. 2a

Gb|--------------------------------------------------|
Db|--------------------------------------------------|
Ab|--------------------------------------------------|
Eb|--0--0--0--0--0--0--0--0--5--3--0--5----0--3--0---|



Gb|--------------------------------------------------|
Db|--------------------------------------------------|
Ab|--------------------------3-----3/-5-------5------|
Eb|--0--0--0--0--0--0--0--0-----3----------5-----0---|




Rhythm Fig. 2b

Gb|--------------------------------------------------|
Db|--------------------------------------------------|
Ab|--------------------------------------------------|
Eb|--0--0--0--0--0--0--0--0--5--3--0--5----0--3--0---|



Gb|--------------------------------------------------|
Db|--------------------------------------------------|
Ab|-------------/7-----------3-----3/-5----------0---|
Eb|--0--0--0--0-----0--0--0------3---------0--3------|




Rhythm Fig. 2c

Gb|--------------------------------------------------|
Db|--------------------------------------------------|
Ab|-------------------/7-----------------------------|
Eb|--0--0--0--0--0--0-----0--5--3--0--5----0--3--0---|



Gb|--------------------------------------------------|
Db|--------------------------------------------------|
Ab|-------------------/7-----3-----3/-5-------5------|
Eb|--0--0--0--0--0--0-----0-----3----------5-----0---|




Rhythm Fig. 3a

Gb|--------------------------------------------------|
Db|--------------------------------------------------|
Ab|--3--3--3--3--3--3--3-----------------------5-----|
Eb|-----------------------3--5--5--5--5--5--5-----5--|



Gb|--------------------------------------------------|
Db|--------------------------------------------------|
Ab|--3--3--3--3--3--3--3-----5--5--5--5--5-----------|
Eb|-----------------------3-------------------15\----|



Rhythm Fig. 3b

Gb|--------------------------------------------------|
Db|--------------------------------------------------|
Ab|--3--3--3--3--3--3--3-----------------------5-----|
Eb|-----------------------3--5--5--5--5--5--5-----5--|
    < - - - - - - - - - - 2x - - - - - - - - - - - >


Gb|--------------------------------------------------|
Db|--------------------------------------------------|
Ab|--3--3--3--3--3--3--3-----5--5--5--5--5--5--5--5--|
Eb|-----------------------3--------------------------|



Gb|--------------------------------------------------|
Db|--------------------------------------------------|
Ab|--5--5--5--5--5-----------------------------------|
Eb|--------------------------------------------------|



Rhythm Fig. 4

Gb|--------------------------------------------------|
Db|--------------------------------------------------|
Ab|--------------------------------------------------|
Eb|--3--3--3--3--3--3--3--3--3--3--3--3--3--3--3--3--|



Gb|--------------------------------------------------|
Db|--------------------------------------------------|
Ab|--6--6--6--6--6--6--6--6--8--8--8--8--8--8--8--8--|
Eb|--------------------------------------------------|



Rhythm Fig. 5a

Gb|--------------------------------------------------|
Db|--------------------------------------------------|
Ab|--3--3--3--3--3--3--3--3--6--6--6--8----8--8\-----|
Eb|--------------------------------------------------|



Gb|--------------------------------------------------|
Db|--------------------------------------------------|
Ab|--------------------------------------------------|
Eb|--1--1--1--1--1--1--1--1--1--1--1--3--3--3--3--0--|



Gb|--------------------------------------------------|
Db|--------------------------------------------------|
Ab|--7------------------3-----3/-5-------------------|
Eb|------------------------3-------------------------|
                      < - - - 2x - - - >


Rhythm Fig. 5b

Gb|--------------------------------------------------|
Db|--------------------------------------------------|
Ab|--3--3--3--3--3--3--3--3--6--6--6-----------------|
Eb|-----------------------------------1--1--1--1--0--|



Gb|--------------------------------------------------|
Db|--------------------------------------------------|
Ab|--------------------------------------------------|
Eb|--1--1--1--1--1--1--1--1--1--1--1--3--3--3--3--0--|



Gb|--------------------------------------------------|
Db|--------------------------------------------------|
Ab|--7------------------3-----3/-5-------------------|
Eb|------------------------3-------------------------|
                      < - - - 3x - - - >
  development and support by
dmitry ivanov