rock
 
|tablatures   |lyrics   |discussion forums   |more tabs @ XGuitar.com

Kiss tabs

Shock Me bass tab

Kiss - Shock Me
from "Love Gun"
letostak@ix.netcom.com (Judy Letostak)

Tune down 1/2 step

------------------------------------------------
------------------------------------------------
--5---0---0---0--5--0-----0--5--0---------------
-----------------------------------2b(3)-2b(3)--


------------------------------------------------
------------------------------------------------
-5--5--5--h7--5-------------------0-------------
-----------------2b(3)--0--2b(3)----------------


||----------------------------------------------
||o---------------------------------------------
||o--5--0---0---0--5--0---0--5--0---------------
||---------------------------------2b(3)-2b(3)--


------------------------------------------------
------------------------------------------------
-5--5--5--h7--5-------------------0--0-0-0------
-----------------2b(3)--0--2b(3)----------------


------------------------------------------------
------------------------------------------------
-5--5--5h7--5-------------------0--0--0--0------
---------------2b(3)--0--2b(3)------------------


------------------------------------------------
------------------------------------------------
-5--5--5--h7--5-------------------0-------------
-----------------2b(3)--0--2b(3)----------------


Pre-Chorus

------------------------------------------------
---------------------2h4--4--2--4--2--4--0--0---
-0h2--2--0--2--0--2-----------------------------
------------------------------------------------

                   Chorus
------------------------------------------------
------------------------------------------------
-3--2-------------------------------------------
-------0--2--3-------5---5---5----5--0----5--5--


------------------------------------------------
------------------------------------------------
------------5----5--5----5-----3----------------
--5---5--0------------------------0--2--3-------


------------------------------------------------
------------------------------------------------
----------------------------------------5----5-5
-5---5---5----5--0----5--5--5----5--0-----------


------------------------------------------------
------------------------------------------------
--5----3----------------------------------------
----------0--2--3-----5----5----5----5--0-------


------------------------------------------------
------------------------------------------------
----------------------5----5--5--5/7--7--7--7---
--5---5---5----5---0----------------------------


--------------------||
-------------------o||
-7--7--7--7-----7--o||
--------------------||


------------------------------------------------
------------------------------------------------
-/7--7--7--7--7--7--7------7--------------------
-----------------------0------------------------

   guitar solo

||----------------------------------------------
||o---------------------------------------------
||o--5---0---0---0--5--0----0--5--0-------------
||-----------------------------------2b(3)-2b(3)


----------------------------------||------------
---------------------------------o||o-----------
-5--5--5--h7--5----------------0-o||o--0h2--0--2
-----------------2b(3)-0-2b(3)----||------------


-----------------------||-----------------------
----------------------o||-----------------------
-0---0h2--2--0--2--0--o||--3---2----------------
-----------------------||---------0--2--3----5--
  development and support by
dmitry ivanov