rock
 
|tablatures   |lyrics   |discussion forums   |more tabs @ XGuitar.com

Kiss tabs

She's So European bass tab

SHES SO EUROPEAN (from the KISS CD "UNMASKED")
--------------------


Transcribed by Emil Ortenmark, emil@kissasylum.com

Standard tuning

Comments: A few new things here. Ive used the notation L.H.M in places.
This mean Left Hand Mute. To do this, finger the note in question with
your index finger and then rest the 2nd finger lightly on the string,
causing a slightly muffled sound. Ive also put a note in parenthesis
in Rhy. Fig 11. This means that it isnt picked. Just slide up to the 19th
fret and then down again.


Key:
/    = slide up
\    = slide down
b    = bend (whole step)
b^   = bend (1/2 step)
b^^  = bend (1 1/2 steps)
pb   = pre-bend
r    = release-bend
t    = tap with righthand finger
h    = hammer-on
p    = pull-off
~    = Vibrato
*    = Natural Harmonic
#(#) = Trill
**   = Artificial Harmonic
x    = Dead notes (no pitch)
P.M. = Palm mute (- -> underneath indicates which notes)
(\)  = Dive w\bar
(/)  = Release w\bar
Tp   = Tap w\plectrum






Rhythm Fig. 1

G|-----------------------------------------------------|
D|--12\----------------7--7--7--7--7--7--7--7----------|
A|-----------------------------------------------------|
E|-----------------------------------------------------|
                       < - - - - 3x - - - - >



Rhythm Fig. 2

G|-----------------------------------------------------|
D|-----------------------------------------------------|
A|--7----7----7--7--7--7-------7----7--7--7--7---------|
E|-----------------------------------------------------|
             L.H.M ->               L.H.M - - >



Rhythm Fig. 3

G|-----------------------------------------------------|
D|-----------------------------------------------------|
A|--5----5----5--5----5-------5------5--5--5-----------|
E|-----------------------------------------------------|




Rhythm Fig. 4

G|-----------------------------------------------------|
D|-----------------------------------------------------|
A|--0--0--3--0--7\---2---------------------------------|
E|-----------------------------------------------------|




Rhythm Fig. 5

G|-----------------------------------------------------|
D|-----------------------------------------------------|
A|--0----0----0--0--2--3-----------3--2--0-------------|
E|------------------------------------------3----------|



G|-----------------------------------------------------|
D|-----------------------------------------------------|
A|----------------0--1-----------1--1--3---------------|
E|----------3--3--------------------------1------------|



G|-----------------------------------------------------|
D|-----------------------------------------------------|
A|---------------------3--------3--2--0----------------|
E|----------1--3-------------------------3-------------|



G|-----------------------------------------------------|
D|-----------------------------------------------------|
A|---------------------0--0--0--0--0--0--0--0--0-------|
E|------3--3--3--3--3----------------------------------|
                          < - - - - - 2x - - - - >



Rhythm Fig. 6

G|-----------------------------------------------------|
D|-----------------------------------------------------|
A|--7----7----7--7--7--7-------7----7--7--7--7---------|
E|-----------------------------------------------------|
             L.H.M ->              L.H.M - - >



G|-----------------------------------------------------|
D|-------------------------------5---------------------|
A|--3------0------5-------0---------5------------------|
E|-----------------------------------------------------|




Rhythm Fig. 7a

G|-----------------------------------------------------|
D|-----------------------------------------------------|
A|--7----7----7--------------------2--3--4--5----------|
E|---------------0--2--3-------------------------------|



G|-----------------------------------------------------|
D|-----------------------------------------------------|
A|--5--5--5--5--5--5--5--5--5--5--5--5--5--------0-----|
E|-----------------------------------------2--3--------|



G|-----------------------------------------------------|
D|-----------------------------------------------------|
A|--0--0--0--0--0--0--0--0-----------------------------|
E|-----------------------------------------------------|
   < - - - - - 2x - - - - >



Rhythm Fig. 7b

G|-----------------------------------------------------|
D|-----------------------------------------------------|
A|--7----7----7--------------------2--3--4--5----------|
E|---------------0--2--3-------------------------------|



G|-----------------------------------------------------|
D|-----------------------------------------------------|
A|--5--5--5--5--5--5--5--5--5--5--5--5--5--------------|
E|-----------------------------------------2--3--5--5\-|






Rhythm Fig. 8

G|-----------------------------------------------------|
D|-----------------------------------------------------|
A|--0--0--0--0--0--0--0--0---0--0--0--0--0--7--7--7----|
E|-----------------------------------------------------|
    < - - - 2x - - - - - >


G|-----------------------------------------------------|
D|----------------------------------------------5------|
A|--0--0--0--0--0--0--0--0---0--0--0--0--0--5h7----7---|
E|-----------------------------------------------------|
    < - - - 2x - - - - - >


Rhythm Fig. 9

G|-----------------------------------------------------|
D|-----------------------------------------------------|
A|-------------------------------5---------------------|
E|--5-----5---4----4---3-----3-------2--3--4-----------|
   < - - - - - - - - - - 2x - - - - - - - - - >


G|-----------------------------------------------------|
D|-----------------------------------------------------|
A|-------------------------------5-----5---------------|
E|--5-----5---4----4---3-----3-------------------------|


Rhythm Fig. 10

G|-----------------------------------------------------|
D|-----------------------------------------------------|
A|-------------------0----0--0--0--0--0--0--0----------|
E|--1----1------3--------------------------------------|



G|-----------------------------------------------------|
D|-----------------------------------------------------|
A|-------------------5----5--5--5--5--5--5--5----------|
E|--1----1------3--------------------------------------|



G|-----------------------------------------------------|
D|-----------------------------------------------------|
A|--5--5--5--5--5--5--5--5-----------------------------|
E|-----------------------------------------------------|


Rhythm Fig. 11

G|-----------------------------------------------------|
D|-----------------------------------------------------|
A|--7----7----7--7--7--7-------7----7--7--7--7---------|
E|-----------------------------------------------------|
             L.H.M ->               L.H.M - - >


G|-----------------------------------------------------|
D|-----------------------------------------------------|
A|--7----7----7--7--7--7/----(19)\---------------------|
E|-----------------------------------------------------|
             L.H.M ->



G|-----------------------------------------------------|
D|-------------------------------5---------------------|
A|--3------0------5-------0---------5------------------|
E|-----------------------------------------------------|



Rhythm Fig. 12

G|-----------------------------------------------------|
D|-----------------------------------------------------|
A|--7----7----7--7--7--7-------7----7--7--7--7---------|
E|-----------------------------------------------------|
             L.H.M ->               L.H.M - - >



Riff 1

G|--12h14---12h14--------------------------------------|
D|------------------14\--------------------------------|
A|-----------------------------------------------------|
E|-----------------------------------------------------|
  development and support by
dmitry ivanov