rock
 
|tablatures   |lyrics   |discussion forums   |more tabs @ XGuitar.com

Kiss tabs

She guitar tab

She by KISS
From the album Dressed To Kill
--------------------------------------------------------------------



  intro
e:---------------------------------------------------------------------------|
B:---------------------------------------------------------------------------|
G:---------7--7-----------------------------------7--7-----------------------|
D:---------5--5---------3-----------3-------------5--5---------3-----------3-|
A:--5--5----------3-4-5-----5-3-4-5-----5--5--5----------3-4-5-----5-3-4-5---|
E:--3--3-----------------------------------3--3------------------------------|



e:---------------------------------------------------------------------------|
B:---------------------------------------------------------------------------|
G:---------3---------5--------------------------------7--7-------------------|
D:---------3---------5---------3----5--3---3----------5--5---------3----5--3-|
A:---5--5------5--5------3-4-5----5------5-----5--5----------3-4-5----5------|
E:---3--3------3--3----------------------------3--3--------------------------|


  guitar 1
e:---------------------------------------------------------------------------|
B:---------------------------------------------------------------------------|
G:---------------------3---------3---------3-----------------------------3---|
D:--3--------------3-5-----5-3-5-----5-3-5----5-3-5-3---3------------3-5----5|
A:5----------3-4-5------------------------------------5--------3-4-5---------|
E:--------3--------------------------------------------------3---------------|
  guitar 2
e:------------------------------------------------------------------------18b|
B:-------------------------------------------15-18-15-18b-18b--18b/18-15-----|
G:--------5b(7)~--5-5-5-5-3--3-----------17b---------------------------------|
D:-----------------------------5---------------------------------------------|
A:---------------------------------------------------------------------------|
E:---------------------------------------------------------------------------|



  guitar 1
e:----------------------------------------|
B:----------------------------------------|
G:-----3---------3------------------------|
D:-3-5-----5-3-5----5-3-5-3---3-----------|
A:--------------------------5-------------|
E:----------------------------------------|
  guitar 2                                        |
e:/18-15----------------------------------|
B:-------18b/18-15------------------------|
G:-----------------17b/17-15--------17-15~|
D:----------------------------15-17-------|
A:----------------------------------------|
E:----------------------------------------|



   "She walks by..."                                                   repeat
e:---------------------------------------------------------------------------|
B:---------------------------------------------------------------------------|
G:---------------------------------------------------------------------------|
D:--------------------------3-----------3----------------------------3-------|
A:---5--5------5--5---3-4-5----5--3-4-5-----5--5--5----5--5----3-4-5----5--3-|
E:---3--3------3--3----------------------------3--3----3--3------------------|




            "I know she's....."              "shes so...:    to verse 2      
e:-------|------------------------------------------------------------|------|
B:-------|--------------------------------------2--------3------------|------|
G:-------|--9-----9-----9-----9-------------------2-------2-----------|------|
D:----3--|--7-----7-----7-----7---------------------2------2----------|------|
A:4-5----|0-0---0-0---0-0---0-0-----------------------0-----0---5--5--|----5-|
E:-------|------------------------------------------------------3--3--|----3-|
                      repeat similar pattern until here



  guitar interlude
e:---------------------------------------------------------------------------|
B:---------------------------------------------------------------------------|
G:----3---------5-------------------------------3--------5-------------------|
D:----3---------5---------3-----------3---------3--------5--------3----------|
A:-5------5--5------3-4-5-----5-3-4-5-----5--5-----5--5-----3-4-5----5-3-4-5-|
E:-3------3--3----------------------------3--3-----3--3----------------------|




e:---------------------------------------------------------------------------|
B:---------------------------------------------------------------------------|
G:----------5--3--------5--3------------------------------5--3--------5--3---|
D:3---------5--3--------5--3--------3-----5-3---3---------5--3--------5--3---|
A:----5--5--------5--5--------3-4-5-----5-----5-----5--5--------5--5--------3|
E:----3--3--------3--3------------------------------3--3--------3--3---------|




e:---------------------------------------------------------------------------|
B:---------------------------------------------------------------------------|
G:--------------------------------------3~-----------------------3~----------|
D:-----3----5-3---3---------5--3-----------5---------5--3------------------5-|
A:-4-5----5-----5-----5--5--------5-3-5--------5--5--------5-3-5-----5--5----|
E:--------------------3--3---------------------3--3------------------3--3----|



                               to bass part
e:-----------------------------------------|---------------------------------|
B:-----------------------------------------|---------------------------------|
G:----------3~-----------------------3~----|--3---5--------------3-----------|
D:-3-----------5---------5--3--------------|--3---5--------------3-----------|
A:----5-3-5--------5--5--------5-3-5-------|-----------3/5--5-5-----3/5--5-5-|
E:-----------------3--3--------------------|-----------1/3--3-3-----1/3--3-3-|




        repeat with solo
e:----------------------------|---5b/5--3------------------------------------|
B:----------------------------|------------5b/5--3---------------------------|
G:-3------------3---xxxx3---5-|---------------------5b/5--3------------------|
D:-3------------3---xxxx3---5-|------------------------------5b/5--3------3--|
A:----3/5--5-5----------------|---------------------------------------3/5----|
E:----1/3--3-3----------------|----------------------------------------------|



e:-----------------------------------------------------------------------17b/|
B:---------------------3----3----------------------3---3---3-----------------|
G:-5b-5b-5b/5--3-5-3---5b---5b--5-5b/5-3---3----5--5b--5b--5b--5-3-5~--------|
D:---------------------------------------5----3------------------------------|
A:---------------------------------------------------------------------------|
E:---------------------------------------------------------------------------|



e:17-15----------------------------------------------------------------------|
B:------17b/17-15------------------------------------------------------------|
G:----------------17b/17-15--------------------------------------------------|
D:--------------------------17b/17-15-------15-----17b-17b-17b/17-15-17-15---|
A:------------------------------------15-17----17----------------------------|
E:---------------------------------------------------------------------------|



e:--------15---------15---------15---------15-------------------------------|
B:-18/15-----18/15------18/15------18/15-----15---18b-18b-18b/18--15-18-18b-|
G:------15--------15---------15---------15----------------------------------|
D:--------------------------------------------------------------------------|
A:--------------------------------------------------------------------------|
E:--------------------------------------------------------------------------|



     "..doin well for.."
e:---------------------------------------------------------------------------|
B:---------------------------------------------------------------------------|
G:--------------------------------------------------------x5-x3-------3--3--3|
D:---------------------12--8-----------x5-x5-x5-x5-8------------x3-x5--------|
A:----------------------------8----------------------------------------------|
E:-------------------------------6-------------------------------------------|



                                            repeat fade out
e:-------------------------------------|---------------|
B:-------------------------------------|---------------|
G:-2-0---------------------------------|---------------|
D:--------3-3-3-3-3/5/3----------------|--9--9--------3|
A:-----------------------5-4-3-1-------|--7--7--3-4-5--|
E:-------------------------------3-2-3-|---------------|


  development and support by
dmitry ivanov