rock
 
|tablatures   |lyrics   |discussion forums   |more tabs @ XGuitar.com

Kiss tabs

She bass tab

  "SHE" from the KISS lp DRESSED TO KILL
   Bass Tabs by Steve Pomponio (spomponio@worldnet.att.net)
                                                                           Ve
G:---------------------------:-------------3-------3-------3--5-3-5-3---3:---|
D:-C----5-5-------3---5-3---3:---------3-5---5-3-5---5-3-5------------5--:---|
A:----5-----3-4-5---5-----5--:---3-4-5-----------------------------------:---|
E:3-3------------------------:-3-----------------------------------------:-3-|
  <-----play 2x------------->  <-------------play 2x------------------->   <-




  rse                                                        Chorus
G:---------------------------:------------------------------:----------------|
D:----5-5-------3---------3--:-------5-5-------3---------3-5:-7-7-----------7|
A:--5-----3-4-5---5-3-4-5---5:-----5-----3-4-5---5-3-4-5----:-----7---4-5h7--|
E:3--------------------------:-3-3--------------------------:-------5--------|
  -------play 3x------------>





G:-----------------------------:--------------------------------:------------|
D:-7------------7-7------------:-------5-5--------3---------3---:--------5-5-|
A:---7----4-5h7-----7----------:-----5------3-4-5---5-3-4-5----5:------5-----|
E:-----5--------------5-5-5-6-7:-3-3----------------------------:-3-3--------|
                                 <-----------play 4x-----------> <----------p




                                                       Interlude & Guitar Sol
G:-----------------:---------------3-----------------3:----------------------|
D:------3---5-3---3:-----5-3---------5-----5-3--------:----------------------|
A:3-4-5---5-----5--:---------5-3-5-------------5-3-5--:----------------------|
E:-----------------:-3-3---------------3-3------------:1h3-x-3-1h3-x-3-1h3-x-|
  lay 2x---------->                                    <-------play throughou


                          
                          
  o         End Song With
G:--------:---------------|
D:--------:--------------3|
A:-----1-3:-7----7-3-4-5--|
E:3-1h3---:---0-----------|
  t------>
  development and support by
dmitry ivanov