rock
 
|tablatures   |lyrics   |discussion forums   |more tabs @ XGuitar.com

Kiss tabs

See You In Your Dreams bass tab

Tuned down 1/2-step


Key:
/    = slide up
\    = slide down
b    = bend (whole step)
b^   = bend (1/2 step)
b^^  = bend (1 1/2 steps)
pb   = pre-bend
r    = release-bend
t    = tap with righthand finger
h    = hammer-on
p    = pull-off
~    = Vibrato
*    = Natural Harmonic
#(#) = Trill
**   = Artificial Harmonic
x    = Dead notes (no pitch)
P.M. = Palm mute (- -> underneath indicates which notes)
(\)  = Dive w\bar
(/)  = Release w\bar
Tp   = Tap w\plectrum




Rhythm Fig. 1a

Gb|---------------------------------------------|
Db|---------------------0------2----------------|
Ab|--0------------------------------------------|
Eb|---------------------------------------------|




Rhythm Fig. 1a

Gb|---------------------------------------------|
Db|---------------------------------------------|
Ab|--0------------------5------7------7--6------|
Eb|---------------------------------------------|



Rhythm Fig. 2

Gb|---------------------------------------------|
Db|-----------------------------3------5--------|
Ab|--0-------------3------5---------------------|
Eb|---------------------------------------------|


Rhythm Fig. 3

Gb|---------------------------------------------|
Db|---------------------------------------------|
Ab|--0----5----0------0------5----0-------------|
Eb|---------------------------------------------|



Gb|------------------0--------------------------|
Db|--0------2-------------4--2--0---------------|
Ab|----------------------------------4--2-------|
Eb|---------------------------------------------|


Rhythm Fig. 4

Gb|---------------------------------------------|
Db|---------------------------------------------|
Ab|--0----5----0------0------5----0-------------|
Eb|---------------------------------------------|



Gb|---------------------------------------------|
Db|--------------------3------5-----------------|
Ab|--3------5-----------------------------------|
Eb|---------------------------------------------|


Rhythm Fig. 5

Gb|---------------------------------------------|
Db|--------4----7----4--------------------------|
Ab|--5--5---------------5----5--3----2----0--3--|
Eb|---------------------------------------------|



Gb|---------------------------------------------|
Db|--------------------5----5-------------------|
Ab|----3--2--0----------------------------------|
Eb|-------------3----------------3--3-----------|



Gb|---------------------------------------------|
Db|--------4----7----4--------------------------|
Ab|--5--5---------------5----5--3----2----0--3--|
Eb|---------------------------------------------|



Gb|---------------------------------------------|
Db|----------------------------------5----------|
Ab|----2--0-------2--3--5-----------------5-----|
Eb|----------3----------------------------------|


Rhythm Fig. 6

Gb|---------------------------------------------|
Db|--------6----9----6----------6----9----6-----|
Ab|--7--7---------------7----7---------------5--|
Eb|---------------------------------------------|



Gb|---------------------------------------------|
Db|--------------------5h7---5h7----------------|
Ab|----5--4----2----0--------------0--0---------|
Eb|---------------------------------------------|



Gb|---------------------------------------------|
Db|--------6----9----6----------6----9----6-----|
Ab|--7--7---------------7----7---------------5--|
Eb|---------------------------------------------|



Gb|---------------------------------------------|
Db|----------------------------------2----------|
Ab|----4--2--0----0--1--2-----------------2-----|
Eb|---------------------------------------------|

Questions/Comments: wagner_769@hotmail.com
  development and support by
dmitry ivanov