rock
 
|tablatures   |lyrics   |discussion forums   |more tabs @ XGuitar.com

Kiss tabs

Save Your Love guitar tab

Save Your Love by KISS
From the album Dynasty
--------------------------------------------------------------------



                              "You were my...."                 "And I was.."
e:---------------------------------------------------------------------------|
B:---------------------------------------------------------------------------|
G:--9-9----9-9----9-9-9-9-----2~---------------------2-------6/7~------------|
D:--9-9----9-9----9-9-9-9-----2~---------------------2-------7/7~------------|
A:--7-7----7-7----7-7-7-7-----0~-0-0-0-0-0-0-0-0-0-0---0-0-0------0-0-0-0-0-0|
E:---------------------------------------------------------------------------|




                                                                 repeat
e:---------------------------------------------------------------------------|
B:---------------------------------------------------------------------------|
G:-------7-------7/6-------------------2-------6/7-------------7--9--7--4--2-|
D:-------7-------7/7-------------------2-------7/7-------------7--7--7--4--2-|
A:-0-0-0---0-0-0-----0-0-0-0-0-0-0-0-0---0-0-0-----0-0-0-0-0-0-------------0-|
E:---------------------------------------------------------------------------|


    
    
    
e:-|
B:-|
G:-|
D:-|
A:-|
E:-|
    



                       "Baby its over..."  "Save your love...."
e:---------------------------------------------------------------------------|
B:---------------------------------------------------------------------------|
G:---2~-------5~-----7--9~-------2~------------------------------------------|
D:---2~-------5~-----7--9~-------2~---------2-2-2-2-2-------5-5-5-5-5-------7|
A:---0~----5--3~-----5--7~----5--0~---------0-0-0-0-0---5---3-3-3-3-3---5---5|
E:---------3------------------3-------------------------3---------------3----|




                               "put it back on the shelf..."
e:----------------------------|------------------------------------------|
B:----------------------------|------------------------------------------|
G:----------------------------|------------------9--9----9--9---9-9-9-9--|
D:-7-7-7-7------5-5-5-5-5-----|--7-7-7-7-7-------9--9----9--9---9-9-9-9--|
A:-5-5-5-5---5--3-3-3-3-3--5--|--5-5-5-5-5--5----7--7----7--7---7-7-7-7--|
E:-----------3-------------3--|-------------3----------------------------|




    "Girl you know its...."                          "So long"    solo
e:---------------------------------------------------------------------------|
B:---------------------------------------------------------------------------|
G:---9~---------9----7~-------7----7~------7-----9~----------------9/7---9/7-|
D:---7~---------7----5~-------5----4~------5-----7~--------------------------|
A:---------------------------------------------------------------------------|
E:---------------------------------------------------------------------------|





e:---------------------------------------------------------------------------|
B:---------------------------------------------------------------------------|
G:--9/7~---7-7/5----7-5-------------------------7b--7b--7b~~~---7b/7-5----5--|
D:--------------7-------7-5-7-----------5--5----------------------------7----|
A:----------------------------0~----/5/7-----7-------------------------------|
E:---------------------------------------------------------------------------|





e:---------------------------------------------------------------------------|
B:-----------------------------------------------------------10/8/10/8/10/8/10
G:5b~~-----------------------------------------------------------------------|
D:-----/7\5----7/5/0/5--2~--2-2-2-2------------------------------------------|
A:----------------------0~--0-0-0-0---0-2-3-5~---0-3/5-5/7-------------------|
E:---------------------------------------------------------------------------|
                            toggle




e:----------------------------------------8/5--------------------------------|
B:-/8--10b-10b-10b~~--10b/10-8---8-8/10------5---8/5-------------------------|
G:-----------------------------9--------------------5--7/5/0-----------------|
D:------------------------------------------------------------7/5/0---------7|
A:--------------------------------------------------------------------0~--0--|
E:---------------------------------------------------------------------------|





e:---------------------------------------------------------------------------|
B:---------------------------------------------------------------------------|
G:---------------------------------------5--7--5/7/5---5------4-4----5-5-----|
D:-----5----4---2/4/2/0/2~---/4~---/5~---------------7------0------0-------0-|
A:---0----0------------------------------------------------------------------|
E:---------------------------------------------------------------------------|
                                                          mute d string




e:---------------------------------------------------------------------------|
B:---------------------------------------------------------------15b~~-------|
G:7-7----9-9----11-11-----12-12-----14-14-14-14-14-14-14-14-12----------12/14|
D:-----0------0---------0---------0------------------------------------------|
A:---------------------------------------------------------------------------|
E:---------------------------------------------------------------------------|


                                                      


e:----------------------------------------------------|
B:-------------------------15b~~----------------------|
G:-14--14/12-------12--12---------12/14/12--12--12/14~|
D:----------14--14------------------------14----------|
A:----------------------------------------------------|
E:----------------------------------------------------|
                                       to chorus

  development and support by
dmitry ivanov