rock
 
|tablatures   |lyrics   |discussion forums   |more tabs @ XGuitar.com

Kiss tabs

Save Your Love bass tab

SAVE YOUR LOVE (from the KISS CD "DYNASTY")
--------------------

Transcribed by Emil Ortenmark, emil@kissasylum.com

Tuned down 1/2-step

Comments:


Key:
/    = slide up
\    = slide down
b    = bend (whole step)
b^   = bend (1/2 step)
b^^  = bend (1 1/2 steps)
pb   = pre-bend
r    = release-bend
t    = tap with righthand finger
h    = hammer-on
p    = pull-off
~    = Vibrato
*    = Natural Harmonic
#(#) = Trill
**   = Artificial Harmonic
x    = Dead notes (no pitch)
P.M. = Palm mute (- -> underneath indicates which notes)
(\)  = Dive w\bar
(/)  = Release w\bar
Tp   = Tap w\plectrum



Rhythm Fig. 1a

Gb|----------------------7h9----7--------------------|
Db|----------------------------------9---------------|
Ab|---------------------------------------7----------|
Eb|--0--0------0--0----------------------------------|




Rhythm Fig. 1b

Gb|----------------------7h9----7--------------------|
Db|----------------------------------9---------------|
Ab|---------------------------------------7----------|
Eb|--0--0------0--0----------------------------------|


Rhythm Fig. 2

Gb|--------------------------------------------------|
Db|-------------------------------------------5---5--|
Ab|--0------------------------------------5h7---7----|
Eb|--------------------------------------------------|



Gb|--------------------------------------------------|
Db|--5h7-------------------------------------5---5h7-|
Ab|--------------------------------------5h7---7-----|
Eb|--------------------------------------------------|



Rhythm Fig. 3

Gb|--------------------------------------------------|
Db|--------------------------------------------------|
Ab|--0-----------3-------5----7------------0---------|
Eb|--------3--------------------------3--------------|




Rhythm Fig. 4a

Gb|--------------------------------------------------|
Db|--------------------------------------------------|
Ab|--0--0--0--0--0---------3--3--3--3--3-------------|
Eb|-------------------3---------------------3--------|



Gb|--------------------------------------------------|
Db|--------------------------------------------------|
Ab|--5--5--5--5--5---------3--3--3--3--3-------------|
Eb|-------------------3---------------------3--------|




Rhythm Fig. 4b

Gb|--------------------------------------------------|
Db|--------------------------------------------------|
Ab|--0--0--0--0--0---------3--3--3--3--3-------------|
Eb|-------------------3---------------------3--------|



Gb|--------------------------------------------------|
Db|--------------------------------------------------|
Ab|--5--5--5--5--5-----------------------------------|
Eb|-------------------3------------------------------|





Rhythm Fig. 4c

Gb|--------------------------------------------------|
Db|--------------------------------------------------|
Ab|--0--0--0--0--0---------3--3--3--3--3-------------|
Eb|-------------------3---------------------3--------|



Gb|--------------------------------------------------|
Db|--------------------------------------------------|
Ab|--5--5--5--5--5--------/7--7--7--7--7-------------|
Eb|-------------------3---------------------3--------|




Rhythm Fig. 5

Gb|--------------------------------------------------|
Db|--5h-7--7--7--5h-7--7--7--5h-7--5-----------------|
Ab|-----------------------------------7--5--3--0-----|
Eb|-----------------------------------------------3---|
   < - - - - 7x - - - - - >



Rhythm Fig. 6a

Gb|--------------------------------------------------|
Db|--------------------------------------------------|
Ab|--0------------0----------------------------------|
Eb|--------------------3------------3----------------|



Gb|--------------------------------------------------|
Db|--------------------------------------------------|
Ab|--5-----------------0-----------------------------|
Eb|---------------3-----------------3----------------|



Rhythm Fig. 6b

Gb|--------------------------------------------------|
Db|--------------------------------------------------|
Ab|--0------------0----------------------------------|
Eb|--------------------3------------3----------------|



Gb|--------------------------------------------------|
Db|--------------------------------------------------|
Ab|--5-----------------0--0--0--0--0--0--0--0--------|
Eb|---------------3----------------------------------|





Rhythm Fig. 7

Gb|--------------------------------------------------|
Db|--------------------------------------------------|
Ab|--0--0--0-----3--3-3-----5--5--5-----3--3--3------|
Eb|--------------------------------------------------|



Gb|--------------------------------------------------|
Db|--------------------------------------------------|
Ab|--0--0--0-------------3--3--3---------------------|
Eb|-----------------3-------------------3------------|



Gb|--------------------------------------------------|
Db|--------------------------------------------------|
Ab|--5--5--5-------------3--3--3---------------------|
Eb|-----------------3-------------------3------------|
  development and support by
dmitry ivanov