rock
 
|tablatures   |lyrics   |discussion forums   |more tabs @ XGuitar.com

Kiss tabs

Saint And Sinner guitar tab

Saint And Sinner by KISS
From the album Creatures Of The Night


  intro
e:---------------------------------------------------------------------------|
B:---------------------------------------------------------------------------|
G:-------------------------------------------------------------------------7~|
D:-----------------------------------------------------------------9~------7~|
A:----7--7-----------7--7-----------7--7-----------7--7------------7~------5~|
E:----------0--0--0--------0--0--0--------0--0--0--------0--0--0---0~--------|


                                                  


e:-----------------------------------------------|
B:---------------9--10---------3--3--------------|
G:-----7---------9--9----7~----2--2---2--2-------|
D:-----4----9~---9--9----7~----0--0---2--2---2~--|
A:----------7~-----------5~----0--0---0--0---2~--|
E:----------0~-------------------------------0~--|




   verses  "....this carousel..." "...do as you please"      "you can go to 
e:---------------------------------------------------------------------------|
B:---------------------------------------------------------------------------|
G:----------------------7~-------------------------------2~------------------|
D:----------------------7~-------------------------------2~------------------|
A:----------------------5~-------------------------------0~------------------|
E:----------------------------------------------------------------------3b---|




 hell"                          "..back against the wall.."  "..I'm not gonna
e:---------0~~-----0---0---0-------------------------------------------------|
B:--------/5~~-----3---2-----------------------------------------------------|
G:-------------------------2----4~---------------------7~-------------2~-----|
D:--2~--------------------------2~---------------------7~-------------2~-----|
A:--2~--------------------------2~---------------------5~-------------0~-----|
E:--0~--------------------------0~-------------------------------------------|
          ^slide up



   fall...on my knees"   "..not at all"                      "So..."
e:------------------------------------------------------------------|
B:------------------------------------------------------------------|
G:------------------------------------------------------------------|
D:----------2--4--5~----------5-------9~----------------------------|
A:----------0--2--3~----------3---5---7~------7-7-7-7-7-7-7-7-7-7---|
E:--------------------------------3---0~------0-0-0-0-0-0-0-0-0-0---|




   chorus   "You're a saint...I'm a sinner...deuce's are wild"
e:--------------------------------------------------------------|----------|
B:--------------------------------------------------------------|----------|
G:--------------------------------------------------------2--2--|------4~--|
D:-------------------------------------5------------------2--2--|------2~--|
A:-------------7--7--5--7--------7--7-----7---7--7--5--7--0--0--|------2~--|
E:--------------------------------------------------------------|--3b--0~--|
                                                      repeat 3X



     "kiss my heart bye bye...you miss my heart this time around"
e:---------------------------------------------------------------------------|
B:-----------------------------------------------------------------------8---|
G:-----7~---------------------------2~--------------------------------/9---9-|
D:-----7~---------------------------2~-----------------------2~--------------|
A:-----5~---------------------------0~-----------------------2~--------------|
E:-----------------------------------------------------3b----0~--------------|


           
           
           
e:--------|
B:--------|
G:-0~~----|
D:--------|
A:--------|
E:--------|
   ^dive



                                                                        
e:---------------------------------------------------------------------------|
B:-------------------------------------------------------3--3----------------|
G:---7b-7------------------------------------------------2--2---2--2---------|
D:--------7---5b-5-4-------------------------------------0--0---2--2---------|
A:---------------------7--7-------7--7-------7--7--------0--0---0--0---------|
E:---------------------0--0--0-0--0--0--0-0--0--0--0-0-----------------------|




  solo
e:---------------12--16b-16-------------------------------17-----------------|
B:15b~~---12--15b-------------15---15-15-15-15-15-15~~---------15b-----------|
G:-----------------------------------------------------------------14--------|
D:--------------------------------------------------------------------14~----|
A:---------------------------------------------------------------------------|
E:---------------------------------------------------------------------------|





e:-6b/16--17-19---19b-19-18-19~-------------4--5--4------------------12---16b/
B:---------------------------------------5----------5~------12--15b----------|
G:------------------------------------4-------------4~-----------------------|
D:---------------------------------------------------------------------------|
A:---------------------------------------------------------------------------|
E:---------------------------------------------------------------------------|





e:16------------------------------17----------------16b-16-17-19---19b-19-18-|
B:----15--15-15-15-15-15-15-15~-------15b------------------------------------|
G:-----------------------------------------14--------------------------------|
D:---------------------------------------------14----------------------------|
A:---------------------------------------------------------------------------|
E:---------------------------------------------------------------------------|


               
               
               
e:19---22-22b~~|
B:-------------|
G:-------------|
D:-------------|
A:-------------|
E:-------------|


  development and support by
dmitry ivanov