rock
 
|tablatures   |lyrics   |discussion forums   |more tabs @ XGuitar.com

Kiss tabs

Room Service guitar tab

Room Service by KISS
From the album Dressed To Kill
--------------------------------------------------------------------



                                                 "I'm feelin' low...."
e:---------------------------------------------------------------------------|
B:---6-6-6-6-----------------------------------------------------------------|
G:---5-5-5-5---5----7--7-9-7-7-7-7-9-7-7-7-9-7----7-7-9-7-7-7-9-7---------14-|
D:---3-3-3-3---5----5--5-5-5-5-5-5-5-5-5-5-5-5----5-5-5-5-5-5-5-5-etc-----12-|
A:-------------3-------------------------------------------------------------|
E:---------------------------------------------------------------------------|




                            "Rock n roll stars dream"
e:---------------------------------------------------------------------------|
B:----------------------------6-6-6-6----------------------------------------|
G:14-16-14-14-14-16-14--------5-5-5-5----5---7-7-9-7-7-7-9-7-----------------|
D:12-12-12-12-12-12-12-etc----3-3-3-3----5---5-5-5-5-5-5-5-5-----5-5-7-5-5-5-|
A:---------------------------------------3-----------------------3-3-3-3-3-3-|
E:---------------------------------------------------------------------------|




                                                       "Room service."
e:---------------------------------------------------------------------------|
B:---------------------------------------------------------------------------|
G:----------7-7-9-7-7-7-9-7------7-7-9-7-7-7-9-7-----------------------------|
D:7-5-------5-5-5-5-5-5-5-5-etc--7-7-7-7-7-7-7-7----------------3---5--5--3-2|
A:3-3-etc------------------------5-5-5-5-5-5-5-5-etc------1-3-5--------------|
E:------------------------------------------------------1--------------------|





e:---------------------------------------------------------------------------|
B:---------------------------------------------------------------------------|
G:--------------------------------------------------------------------------5|
D:--0-2--------------3--5-3-3/5~-3/5~-3/5~-----------3---5--5--3-2--0-2-----3|
A:------1~-----1-3-5---------------------------1-3-5--------------------1----|
E:-----------1-------------------------------1-------------------------------|


                    
                    
                    
e:-----------------|
B:-----------------|
G:-5-5-5-------7~--|
D:-3-3-3---5---5~--|
A:---------3-------|
E:-----------------|




   solo
e:---------------------------------------------------------------------------|
B:---6b(8)~-6b-6-6b-6-6b-6-6b~---6b-6-3--------------------------------------|
G:--------------------------------------3-----3----3-----3----3-5--5b-5b-5b-5|
D:-----------------------------------------5-----5----5-----5----------------|
A:---------------------------------------------------------------------------|
E:---------------------------------------------------------------------------|





e:---------------------------------------------------------------------------|
B:-------------------------8-8--11/10/8--8--11/10/8--8--11/10/8--8--11/10/8--|
G:b--5b/5-3--3---------/10-------------10----------10----------10----------10|
D:--------------5~-----------------------------------------------------------|
A:---------------------------------------------------------------------------|
E:---------------------------------------------------------------------------|





e:---------------------------------------------------------------------------|
B:8--11/10/8-11/10/8-11/10/8-11/10/8-------------8-11--11b/11-8/11/8--13b-13-|
G:-----------------------------------10-10~---10-----------------------------|
D:---------------------------------------------------------------------------|
A:---------------------------------------------------------------------------|
E:---------------------------------------------------------------------------|


                                
                                

e:------------------------------|
B:13b-13-13b-13b-11b/11-8-------|
G:------------------------10-10~|
D:------------------------------|
A:------------------------------|
E:------------------------------|


  development and support by
dmitry ivanov