rock
 
|tablatures   |lyrics   |discussion forums   |more tabs @ XGuitar.com

Kiss tabs

Rock Bottom guitar tab

Rock Bottom by KISS
From the album Dressed To Kill
--------------------------------------------------------------------



   "I can't...."
e:---------------------------------------------------------------------------|
B:-----------3--3----------------3--3------------------3--3---------------3-3|
G:--0--2-----2--2--2-------------2--2--2------0--2-----2--2--2------------2-2|
D:--0--2-----0--0--2-----2--4----0--0--2------0--2-----0--0--2---2--4-----0-0|
A:--x--0-----------0-----2--4----------0------x--0-----------0---2--4--------|
E:--3--------------------0--2-----------------3------------------0--2--------|




                   "Rock bottom..."
e:---------------------------------------------------------------------------|
B:-------3-3-----------------------------------------7/9--9~-----------------|
G:--2----2-2--2------4--4----------4-----4------7----7/9--9~-------4-----4---|
D:--2----0-0--2------4--4-------2--4--x--4------7----7/9--9~----2--4--x--4---|
A:--0---------0------2--2-------0--2--0--2------5---------------0--2--0--2---|
E:---------------------------------------------------------------------------|


                                             


e:------------------------------------------|
B:--3--------------------------3------------|
G:--2----4--4-------4-----4----2---2--------|
D:--0----4--4----2--4--x--4----0---2-----9--|
A:-------2--2----0--2--0--2--------0-----7--|
E:---------------------------------------0--|





e:--------------------------10b--10b-10b-10-8-10-8---------------------------|
B:----------------5/8/8b~-------------------------10---10b(13)-10b-10b~-10b-8|
G:--7b/7-5-----5/7-----------------------------------------------------------|
D:---------7-----------------------------------------------------------------|
A:---------------------------------------------------------------------------|
E:---------------------------------------------------------------------------|


                                                 


e:-------8/5/8/5---------------------------------|
B:-10-8---------8/5------------------------------|
G:-----------------7/5------5/7--7b/7-5----------|
D:--------------------7--5/7-----------7~--------|
A:----------------------------------------5/3----|
E:--------------------------------------------5/3|



  development and support by
dmitry ivanov