rock
 
|tablatures   |lyrics   |discussion forums   |more tabs @ XGuitar.com

Kiss tabs

Rock And Roll Hell guitar tab

Rock And Roll Hell by KISS
From the album "Creatures Of The Night"


    intro
e:---------------------------------3-----5------------------------2-----3----|
B:---------------------------------3-----5------------------------3-----3----|
G:---------------------------------0-----2------------------------2-----0----|
D:---------------------------------0-----2------------------------0-----0----|
A:---------------------------------x-----0------------------------0-----x----|
E:------0/15/0----0--0--1--2--3~---3-------------0--0--1--2--3~---------3----|


                                       


e:---------------------3-----5--------|
B:---------------------3-----5--------|
G:---------------------0-----2--------|
D:---------------------0-----2-----2~-|
A:---------------------x-----0-----2~-|
E:---0--0--1--2--3~----3-----------0~-|



         "Been under fire 16 years, just waiting for his time to come.
  verses  He fought the lies fought back the tears, cant wait to hear that 

 starters gun."     "There aint nobody gonna step on his feet"       "So he 
e:--------------3~----------------------------0~-----------------0---3~------|
B:--------------3~----------------------------3~-----------3---3-----3~------|
G:--------------0~----------------------------2~-------------2-------0~------|
D:--------------0~----------------------------0~---------------------0~------|
A:--------------X----------------------------------------------------x-------|
E:--------------3~---------------------------------------------------3~------|


                                    

 held his hands high and screamed"
e:---------------------------------|
B:--------------------------3~-----|
G:--------------------------2~-----|
D:--------------------------0~-----|
A:--------------------------0~-----|
E:---------------------------------|




         "Get me outta this rock n roll hell" "Take me far away"    "Get me o
e:----------------------------3~-----------------------------------3~--------|
B:----------------------------3~-----------------------------------3~--------|
G:----------------------------0~----------2~-----------------------0~--------|
D:----2~----------------------0~----------2~-----------------------0~--------|
A:----2~----------------------x-----------0~-----------------------x---------|
E:----0~----------------------3~-----------------------------------3~--------|


                                                  

  utta this r'n'r hell"
e:-----------------------|-----------------------|
B:-----------------------|-----------------------|
G:-----------------2~----|-----------------------|
D:-----------------2~----|--2--0-------------2~--|
A:-----------------0~----|--------2--0-------2~--|
E:-----------------------|--------------3b---0~--|




                                    to 2nd verse
e:------------------------------------------------|
B:------------------------------------------------|
G:------------------------------------------------|
D:------------------------------------------------|
A:----5/7--7-7-7--7-7-7--7-7-7--7-7--5/7--7-7-7---|
E:----0-0--0-0-0--0-0-0--0-0-0--0-0--0-0--0-0-0---|
                                          etc


   "He's on the edge..."                                "..might even steal
   "He can feel it in his heart"                         a guitar"
e:--------------------------------3------------------------------------------|
B:--------------------------------3------------3-----------------------------|
G:--------------------------------0---2~-------2-----------------------------|
D:--------------------------------0---2~-------0---2~------------------------|
A:--------------------------------x---0~-------0---2~------------------------|
E:--------------------------------3----------------0~------------------------|


               
               
               
e:--3---------|
B:--3---------|
G:--0---2~----|
D:--0---2~----|
A:--x---0~----|
E:--3---------|
   to chorus


  development and support by
dmitry ivanov