rock
 
|tablatures   |lyrics   |discussion forums   |more tabs @ XGuitar.com

Kiss tabs

Rock and Roll All Nite (Live) guitar tab

Kiss - Rock 'n' Roll All Nite (Alive 1 Version)
Submitted By: fullyhardenedpunk
EMail: fullyhardenedpunk@hotmail.com
taken from kisstabs
transcribed by Mark Perillo (mark@kisstabs.com)

Eb Tuning

Key:
/    = slide up
\    = slide down
b    = bend (whole step)
b^   = bend (1/2 step)
b^^  = bend (1 1/2 steps)
pb   = pre-bend
r    = release-bend
r^   = release-bend half-step
h^   = hammer-on
p^   = pull-off
~    = Vibrato
*    = Natural Harmonic
#(#) = Trill
**   = Artificial Harmonic
x    = Muted String (Palm Muting)
X    = Muted String (Fretboard Muting)


Rhythm Fig. 1

Eb|-10------10------10--10--10--10\--------------------|
Bb|-10------10------10--10--10--10\--------------------|
Gb|-11h^12--11h^12--11--12--12--11\--------------------|
Db|-12------12------12--12--12--12\--------------------|
Ab|-10------10------10--10--10--10\--------------------|
Eb|-10------10------10--10--10--10\--------------------|


Rhythm Fig. 2

Eb|----------------------------------------------------|
Bb|--2----------------------------2--------------------|
Gb|--2-----9--9-11-9--------------2--------------------|
Db|--2-----9--9-9--9--11--9-------2--------------------|
Ab|--0-----7----------7---7---0---0--------------------|
Eb|------0---------------------------------------------|


Rhythm Fig. 2a

Eb|--5----------------------------5-5--5---------------|
Bb|--5----------------------------5-5--5---------------|
Gb|--6-----9--9-9-----------------6-6--6---------------|
Db|--7-----9--9-9-----------------7-7--7---------------|
Ab|--7-----7--7-7-----------------7-7--7---------------|
Eb|--5---0------------------------5-5--5---------------|


Rhythm Fig. 3

Eb|----------------------------------------------------|
Bb|--7-------------------------------9\----------------|
Gb|--7--7-9-7----7---9--9-11-9----9--9\----------------|
Db|--7--7-7-7-9--7---9--9-9--9-11-9--9\----------------|
Ab|--5--------5------7---------7-----------------------|
Eb|------------------0---------------------------------|


Rhythm Fig. 3a

Eb|----------------------------------------------------|
Bb|--7-7--7----------9-9--9----------------------------|
Gb|--7-7--7----------9-9--9----------------------------|
Db|--7-7--7----------9-9--9----------------------------|
Ab|--5-5--5----------7-7--7----------------------------|
Eb|----------------------------------------------------|


Rhythm Fig. 4

Eb|--------------------------------------------------10|
Bb|-------10--10--11--10--12-12-13-12-12-12-12-13-12-12|
Gb|---9/--10--10--10--10--12-12-12-12-12-12-12-12-12-12|
Db|---9/--10--10--10--10--12-12-12-12-12-12-12-12-12-12|
Ab|---7/--8---8---8---8---10-10-10-10-10-10-10-10-10-10|
Eb|----------------------------------------------------|


Rhythm Fig. 5

Eb|----------------------------------------------------|
Bb|--2-----7---------7----7/9---9-------9--9-----9--2--|
Gb|--2-----7---------7----7/9---9----9--9--9-----9--2--|
Db|--2-----7--9------7----7/9---9-11-9--9--9--11-9--2--|
Ab|--0-----5--5------5----5/7---7-7--7--7--7--7--7--0--|
Eb|----------------------------------------------------|
     <--------------------2X--------------------->

Rhythm Fig. 5a

Eb|----------------------------------------------------|
Bb|--2-----7---------7----7/9---9-------9--9-----9-----|
Gb|--2-----7---------7----7/9---9----9--9--9-----9-----|
Db|--2-----7--9------7----7/9---9-11-9--9--9--11-9-----|
Ab|--0-----5--5------5----5/7---7-7--7--7--7--7--7-----|
Eb|----------------------------------------------------|


Rhythm Fig. 6

Eb|----------------------------------------------------|
Bb|----------------------------------------------------|
Gb|---7b^--r7--5--7--5---------7--5--------------------|
Db|---7b^--r7--5--7--5--7--5---7--5--5----7-----7------|
Ab|---------------------7--5---------5----7-----7------|
Eb|---------------------------------------5-----5------|


Solo

Eb|-------5-5-----5---8p^5-----------------------------|
Bb|---5---5-5--5--5--------8--8p^5--------------7b^----|
Gb|---7b-------7b------------------7-7-7p^5-----7b^----|
Db|-----------------------------------------7~---------|
Ab|----------------------------------------------------|
Eb|----------------------------------------------------|
      <-----4x---->

Eb|----------------------------------------------------|
Bb|-r7--7p^5-----5---------7b^-r7--7p^5----5-----------|
Gb|-r7--7p^5--7--5--7--5---7b^-r7--7p^5--7-5--7b^--/-\-|
Db|-----------7-----7--5-----------------7-------------|
Ab|----------------------------------------------------|
Eb|----------------------------------------------------|


Eb|------17-17----17-----------------------------------|
Bb|--17--17-17-17-17---17-20p^17-----20-20p^17---------|
Gb|--19b-------19b---------------19------------19------|
Db|----------------------------------------------------|
Ab|----------------------------------------------------|
Eb|----------------------------------------------------|
      <------3x---->                 <----2x---->

Eb|--------------------------20b-20b~~~~-17h^20p^17----|
Bb|-17-20p^17-----20-----17-------------------------20-|
Gb|-----------19-----19--------------------------------|
Db|----------------------------------------------------|
Ab|----------------------------------------------------|
Eb|----------------------------------------------------|

Eb|-17-------------------------------------------------|
Bb|----------20----------------------------------------|
Gb|-----19b------r19^p17-------------------------------|
Db|----------------------19~---------------------------|
Ab|----------------------------------------------------|
Eb|----------------------------------------------------|

Riff.1

Eb|-------13-----13--------------15----15-----15----15-|
Bb|-------13-----13--------------15----15-----15----15-|
Gb|---/14-----15----14(15)---/16----17-----18----17----|
Db|----------------------------------------------------|
Ab|----------------------------------------------------|
Eb|----------------------------------------------------|

Eb|----15----------------------------------------------|
Bb|----15----------------------------------------------|
Gb|----16----------------------------------------------|
Db|----------------------------------------------------|
Ab|----------------------------------------------------|
Eb|----------------------------------------------------|



ROCK AND ROLL ALL NITE - Paul Stanley, Gene Simmons

[Rhythm Fig. 1]
[Rhythm Fig. 2] w/ [Rhythm Fig. 2a]

[Rhythm Fig. 2] w/ [Rhythm Fig. 2a]
You show us everything you've got
You keep on dancin' and the room gets hot
[Rhythm Fig. 3] w/ [Rhythm Fig. 3a]
You drive us wild, we'll drive you crazy
[Rhythm Fig. 1]

[Rhythm Fig. 2] w/ [Rhythm Fig. 2a]
You say you wanna go for a spin
The party's just begun, we'll let you in
[Rhythm Fig. 3] w/ [Rhythm Fig. 3a]
You drive us wild, we'll drive you crazy
[Rhythm Fig. 1]

[Rhythm Fig. 4]
You keep on shoutin', you keep on shoutin'

[Rhythm Fig. 5]
I wanna rock and roll all nite and party every day
I wanna rock and roll all nite and party every day
I wanna rock and roll all nite and party every day
I wanna rock and roll all nite and party every day


[Rhythm Fig. 1]

[Rhythm Fig. 2] w/ [Rhythm Fig. 2a]
You keep on saying you'll be mine for a while
You're lookin' fancy and I like your style
[Rhythm Fig. 3] w/ [Rhythm Fig. 3a]
You drive us wild, we'll drive you crazy
[Rhythm Fig. 1]

[Rhythm Fig. 2] w/ [Rhythm Fig. 2a]
You show us everything you've got
Baby, baby that's quite a lot
[Rhythm Fig. 3] w/ [Rhythm Fig. 3a]
And you drive us wild, we'll drive you crazy
[Rhythm Fig. 1]

[Rhythm Fig. 4]
You keep on shoutin', you keep on shoutin'

[Rhythm Fig. 5]
I wanna rock and roll all nite and party every day
I wanna rock and roll all nite and party every day
I wanna rock and roll all nite and party every day
I wanna rock and roll all nite and party every day

[Rhythm Fig. 1]

[Solo] w/ [Rhythm Fig. 2] w/ [Rhythm Fig. 2a] then [Rhythm Fig. 3] w/ [Rhythm Fig. 3a]
then [Rhythm Fig. 1](2x)

[Rhythm Fig. 4] w/[Riff. 1]

[Rhythm Fig. 5a]
I wanna rock and roll all nite and party every day
I wanna rock and roll all nite and party every day
I wanna rock and roll all nite and party every day
I wanna rock and roll all nite and party every day
[Rhythm Fig. 1]
[Rhythm Fig. 3] w/ [Rhythm Fig. 3a]
[Rhythm Fig. 6]
  development and support by
dmitry ivanov