rock
 
|tablatures   |lyrics   |discussion forums   |more tabs @ XGuitar.com

Kiss tabs

Rock And Roll All Night bass tab

    "ROCK AND ROLL ALL NIGHT" IS FAIRLY EASY IF YOU PRACTICE IT.  IT GOES LIKE
    THIS
    
    THE INTRO IS EASY AND YOU PLAY IT AGAIN AFTER THE VERSE IS OVER
    
    G-----------------------------------------------------------------|
    D-4-4-3-4-3-4-4---------------------------------------------------|
    A-----------------------------------------------------------------|
    E-----------------------------------------------------------------|
    
    THIS IS HOW YOU PLAY THE VERSE
    
    
    G|----------------------------------------------------------------|
    D|-----------------------6-6-6-6-6-6-6-6--------------------------|
    A|----------------------6-6-6-6-6-6-6-6-4-4-4-4-4-4-4-4-----------|
    E|-4-4-4-4-4-4-4-4----------------------4-4-4-4-4-4-4-4-----------|
    
    AFTER THAT PLAY THE INTRO AND THEN PLAY THE VERSE AGAIN
    
    THEN PLAY THIS
    
    G|-------------------------|
    A|-------------------------|
    D|-7-7-7-7-7-7-7-9-9-9-9-9-|
    E|-------------------------|
    
    WHEN THEY SING " I WANT TO ROCK AND ROLL ALL NIGHT , AND PARTY EVERYDAY, PLAY
    THIS
    
    G|------------------------------------------------------|
    A|------------------------------------------------------|
    D|----------------------4-4-4-4-4-4-4-4-6-6-6-6-6-6-6-6-| 
    E|-4-4-4-4-4-4-4-4--------------------------------------|
    
    IF YOU HAVE ANY PROBLEMS WITH THIS, PLEASE E-MAIL ME.  IF YOU HAVE 
    HAVE ANY COMPLIMENTS OR "NICE COMMENTS" PLEASE E-MAIL ME
    
    
  development and support by
dmitry ivanov