rock
 
|tablatures   |lyrics   |discussion forums   |more tabs @ XGuitar.com

Kiss tabs

Rip It Out guitar tab

Rip It Out by Ace Frehley
From Ace Frehley's solo w/KISS
--------------------------------------------------------------------



  intro/verses                                            repeat
e:--------------------------------------------------------------------|
B:--------------------------------------------------------------------|
G:----------------------7-------2----2/4--4-----4---------4---4-4-4---|
D:----9---9-9-9-9-9-9---7---7---2----2/4--4-----4--4-4/4--4---4-4-4---|
A:----7---7-7-7-7-7-7---5---4---0----0/2--2-----2--0-0/2--2---2-2-2---|
E:----0---0-0-0-0-0-0-------------------------------------------------|




                         "Rip it out..."              repeat
e:---------------------------------------------------------------------------|
B:---------------------------------------------------------------------------|
G:--------------2---2------7-7-7----------5--5---------------------2-----2---|
D:----5---5-----2---2------7-7-7----------5--5---------------------2-----2---|
A:----5---5-----0---0------5-5-5----------3--3-----5--4/5--5-------0-----0---|
E:----3---3----------------------------------------3--2/3--3-----------------|


                                          

                          to verse 2
e:---------------------------------------|
B:---------------------------------------|
G:----2-----2-------4-----4------4---4~--|
D:----2-----2-------4-----4------2---4~--|
A:----0-----0-------2-----2----2-----2~--|
E:---------------------------------------|




  "I hope you suffer..."
e:------------------------------------|
B:------------------------------------|
G:-----------------------7---8---9-9--|
D:-----------------------7---8---9-9--|
A:-----------------------5---6---7-7--|
E:------------------------------------|




   solo
e:-------------------------12-12---------------------------------------------|
B:-----------------------12---12--15b-15b~--15b--15b--15b--------------------|
G:--------------------14b----------------------------------12/14/12--14b--14b|
D:---------------------------------------------------------------------------|
A:---------------------------------------------------------------------------|
E:-----x~~~~~~~~~~~----------------------------------------------------------|
       pick slide




e:------------12-12-----------------------------15b/15--17-15-17-15-17--17b--|
B:----------12---12--15b--15b~----12/15/12--12-------------------------------|
G:~------14b------------------------------14---------------------------------|
D:---------------------------------------------------------------------------|
A:---------------------------------------------------------------------------|
E:---------------------------------------------------------------------------|





e:17b~--17b--17b---------12-12-----------------------------------------------|
B:---------------------12---12---15b--15b---4/2/0--4/2/0--4/2/0--4/2/0/4/2/0/|
G:------------------14b------------------------------------------------------|
D:---------------------------------------------------------------------------|
A:---------------------------------------------------------------------------|
E:---------------------------------------------------------------------------|





e:-----------------------------------------------------12-12-----------------|
B:4/2/0/4/2/0----4---5---7-----9---10--11--12--------12---12---15b--15b---15b|
G:---------------6b--7b--9b----11b-12b-13b-14b----14b------------------------|
D:---------------------------------------------------------------------------|
A:---------------------------------------------------------------------------|
E:---------------------------------------------------------------------------|





e:--------------------------------------14-17-17/14-17b-------14-17-17/14--17|
B:-15b-15b-15b-15b-15b-15b-15b/12---17b-------------------17b----------------|
G:---------------------------------------------------------------------------|
D:---------------------------------------------------------------------------|
A:---------------------------------------------------------------------------|
E:---------------------------------------------------------------------------|


            
            
            
e:b-17b~---|
B:---------|
G:---------|
D:---------|
A:---------|
E:---------|



  development and support by
dmitry ivanov