rock
 
|tablatures   |lyrics   |discussion forums   |more tabs @ XGuitar.com

Kiss tabs

Rip It Out bass tab

  "Rip It Out" from the Kiss/Ace Frehley solo Album
 Bass Tabs by Steve Pomponio (spomponio@worldnet.att.net)
  Verse (Fig 1)                                            End Verse  Chorus

G:--------------------------------------------------------:---------:--------|
D:--------------------------------------------------------:---------:--------|
A:7-7-7-7-7-7-7-7-5-5-5-4-4-4-----------------------------:---------:5-5-5-3-|
E:---------------------------5-7-7-7-7-7-7-7-5-7-7-7-7-7-7:-3-3-5-5-:--------|



  (play 4x) End with              Drum Break (play 4x)  Guitar solo= Fig 1:

G:---------:---------------------:--------------------:-------------------:|
D:---------:-----------------8h9-:--------------------:-------------------:|
A:3--------:---------------7-----:-5-6-7-7------------:-------------------:|
E:--3-2-3--:-5-5--5-5--7-7-------:--------------------:-------------------:|
  development and support by
dmitry ivanov