rock
 
|tablatures   |lyrics   |discussion forums   |more tabs @ XGuitar.com

Kiss tabs

Prisoner Of Love guitar tab

PRISONER OF LOVE (from the KISS CD "HOT IN THE SHADE")
--------------------

Transcribed by Emil Ortenmark, emil@kissasylum.com

Standard tuning

Comments: This is not quite in standard tuning, it?s slightly below. For
best results, tune to the album. The long A chord in Rhy. Fig 4 should
do nicely. Lots of lead fills in this one. Also, check out the perfect
mimicking of the Billy Gibbons (ZZ Top) sound in Riff 2.


Key:
/    = slide up
\    = slide down
b    = bend (whole step)
b^   = bend (1/2 step)
b^^  = bend (1 1/2 steps)
pb   = pre-bend
r    = release-bend
t    = tap with righthand finger
h    = hammer-on
p    = pull-off
~    = Vibrato
*    = Natural Harmonic
#(#) = Trill
**   = Artificial Harmonic
x    = Dead notes (no pitch)
P.M. = Palm mute (- -> underneath indicates which notes)
(\)  = Dive w\bar
(/)  = Release w\bar
Tp   = Tap w\plectrum





Rhythm Fig. 1

E|-----------------------------------------------------------------------|
B|-----------------------------------------------------------------------|
G|---------2----------------4----------------2---------------------------|
D|--4------2---------2------4---------4------2---------2-----------------|
A|--4------0---------2------2---------4------0---------2-----------------|
E|--2----------------0----------------2----------------0-----------------|




Rhythm Fig. 2

E|-----------------------------------------------------------------------|
B|-----------------------------------------------------------------------|
G|---------2----------------4----------------2---------4-----------------|
D|--4------2---------2------4---------4------2---------4-----------------|
A|--4------0---------2------2---------4------0---------2-----------------|
E|--2----------------0----------------2----------------------------------|



Rhythm Fig. 3

E|-----------------------------------------------------------------------|
B|-----------------------------------------------------------------------|
G|---------2----------------4---------2---------------4------------------|
D|--4------2---------2------4---------2----------2----4------------------|
A|--4------0---------2------2---------0----------2----2------------------|
E|--2----------------0---------------------------0-----------------------|



Rhythm Fig. 4

E|-----------------------------------------------------------------------|
B|-----------------------------------------------------------------------|
G|--2---------------------5--0----7------------------5-----5/-7~------5--|
D|--2---------------------5--0----7------------------5-----5/-7~------5--|
A|--0-----------------------------5---------------0-----0----------0-----|
E|-----------------------------------------------------------------------|



E|-----------------------------------------------------------------------|
B|-------------------3--3------------------------------------------------|
G|--2----------------0--0----7------5-----5/-7~------5-----5/-7~------5--|
D|--2----------------0--0----7------5-----5/-7~------5-----5/-7~------5--|
A|--0------------------------5---0-----0----------0-----0----------0-----|
E|-------------------3--3------------------------------------------------|



E|-----------------------------3-----------------------------------------|
B|-----------------------------3-----------------------------------------|
G|--2--------------5--------0--0----7----------------5-----5/-7~------5--|
D|--2--------------5--------0-------7----------------5-----5/-7~------5--|
A|--0--------------3----------------5-------------0-----0----------0-----|
E|--------------------------3--------------------------------------------|



E|-----------------------------------------------------------------------|
B|-----------------------------------------------------------------------|
G|--2---------------5----------7-----5~----------------------------------|
D|--2---------------5----------7-----5~----------------------------------|
A|--0---------------3----0--0-----0--------------------------------------|
E|-----------------------------------------------------------------------|




Rhythm Fig. 5

E|-----------------------------------------------------------------------|
B|-----------------------------------------------------------------------|
G|--4--------2-----------------------------------------------------------|
D|--4--------2-----------------------------------------------------------|
A|--2--------0-----------------------------------------------------------|
E|-----------------------------------------------------------------------|



Rhythm Fig. 6

E|-----------------------------------------------------------------------|
B|-----------------------------------------------------------------------|
G|-----------------------------------------------------------------------|
D|-----------------------------------------------------------------------|
A|-------------------0----------------0-----------------2p-0-----0-------|
E|--0h-2--2--2--2--2----2--2--2--2--2----2--2--2--2--2--------2-----2--0-|
  < - - - - - - - - - - - - - - - - 2x - - - - - - - - - - - - - - - - - >


E|-----------------------------------------------------------------------|
B|-----------------------------------------------------------------------|
G|-----------------------------------------------------------------------|
D|-----------------------------------------------------------------------|
A|-------------------1----------------1-----------------3p-1-----1-------|
E|--1h-3--3--3--3--3----3--3--3--3--3----3--3--3--3--3--------3-----3--1-|



E|-----------------------------------------------------------------------|
B|-----------------------------------------------------------------------|
G|-----------------------------------------------------------------------|
D|-----------------------------------------------------------------------|
A|--------------------3--------5p-3--------------------------------------|
E|--3h-5--5--5--5--5-----5--3--------3--5\-------------------------------|



Rhythm Fig. 7

E|-----------------------------------------------------------------------|
B|-----------------------------------------------------------------------|
G|-------------------------2-------------------------5-------------------|
D|--3---------------5------2---------3---------------5------5------------|
A|--3---------------5------0---------3---------------3------5------------|
E|--1---------------3----------------1----------------------3------------|



E|-----------------------------------------------------------------------|
B|-----------------------------------------------------------------------|
G|-------------------------------------------2----4----------------------|
D|--------------------------------------5----2----4----2-----------------|
A|--0h-1--1--1--1--1--0h-1--1--1--1--1--5----0----2----2-----------------|
E|--------------------------------------3--------------0-----------------|




Riff 1

E|------------------------------------19b-r19p-17------------------------|
B|--17b-17b~-------14(\)--------------------------19~---2/---------------|
G|-----------------14(\)--------------------------------2/---------------|
D|-----------------------------------------------------------------------|
A|-----------------------------------------------------------------------|
E|-----------------------------------------------------------------------|
                                                        Gradual with slide




Riff 2

E|-----------------------------------------------------------------------|
B|----------------------------------------5**b--5**~---------------------|
G|--2**------------4**-----------2**b------------------2**---------------|
D|------4**~--4**-------4**~-------------------------------4**----2------|
A|-----------------------------------------------------------------------|
E|-----------------------------------------------------------------------|
                                 1/4-step



Riff 3

E|-----------------------------------------------------------------------|
B|-----------------------------------------------------------------------|
G|--------------------14b--------16b------16--------14b------------------|
D|------16----16-16~------------------x-------16~------------------------|
A|--/16----16------------------------------------------------------------|
E|-----------------------------------------------------------------------|
                      1/4-step                        1/4-step



E|----------14----------14------------------14---------------------------|
B|------14-----17b~--------17--14--17b~--------17--14--------------------|
G|--16b------------------------------------------------16b-r16--14~------|
D|-----------------------------------------------------------------------|
A|-----------------------------------------------------------------------|
E|-----------------------------------------------------------------------|




Riff 4

E|-----------------------------------------------------------------------|
B|-----------------------------------------------------------------------|
G|---------------------------4**-----------------------------------------|
D|--4**-----------------4**-------4**------------------------------------|
A|-----------------------------------------------------------------------|
E|-----------------------------------------------------------------------|






Riff 5

E|-----------------------------------------------------------------------|
B|-----------------------------------------------------------------------|
G|-----------------------------------------------------------------------|
D|--/5-------------------------------------------------------------------|
A|--/5-------------------------------------------------------------------|
E|-----------------------------------------------------------------------|
    Gradual with slide


Riff 6 (with slide)

E|-----------------------------------------------------------------------|
B|-----------------------------------------------------------------------|
G|-----------------------------------14\---------------------------------|
D|--9\---7(\/)(\/)-------------------14\---------------------------------|
A|--9\---7(\/)(\/)-------------------------------------------------------|
E|-----------------------------------------------------------------------|


Riff 7

E|----------17~-----17---------------------------------------------------|
B|--17--20-------------20-17---------------------------------------------|
G|---------------------------20-19-17------------------------------------|
D|------------------------------------19-17------------------------------|
A|------------------------------------------19-18--17-15b---15~----------|
E|-----------------------------------------------------------------------|



E|-------------------------------24--------------------------------------|
B|--22b-r22-p20--22b---r22-22b-------------------------------------------|
G|-----------------------------------------------------------------------|
D|-----------------------------------------------------------------------|
A|--------------------------------------------(\)------------------------|
E|--------------------------------------------(\)------------------------|
                 Pick once - >


Riff 8

E|-----------------------------------19b-r19p-17--19--19b~---------------|
B|--17b-17b~-------14(\)-------------------------------------------------|
G|-----------------14(\)-------------------------------------------------|
D|-----------------------------------------------------------------------|
A|-----------------------------------------------------------------------|
E|-----------------------------------------------------------------------|




E|--pb17-r17--14---------14----------------------------------------------|
B|---------------14--17------17~-----------------------------------------|
G|-----------------------------------------------------------------------|
D|-----------------------------------------------------------------------|
A|-----------------------------------------------------------------------|
E|-----------------------------------------------------------------------|


Solo

E|-----------------------------------------------------------------------|
B|-----------------------------------------------------------------------|
G|--9b^^-----(/)9-(/)8-(/)7--5-------------------------------------------|
D|-----------------------------7~----------------------------------------|
A|-------------------------------------3p0-4p0-5p0-4p0-3b^-r3------------|
E|-----------------------------------------------------------------------|
                                       Semi-harm  - - - - - >


E|------------------------------------------15--14-15-14-12----12--------|
B|--14-15-16-16/17~---/17-16-15-13--------------------------15-----------|
G|---------------------------------14~-----------------------------------|
D|-----------------------------------------------------------------------|
A|-----------------------------------------------------------------------|
E|-----------------------------------------------------------------------|
   With slide - - - - - - - - - - - ->



E|--14h15p14p12----12-14h15p14p12----12--15/-----------------------------|
B|--------------15----------------15-----15/-----------------------------|
G|-----------------------------------------------------------------------|
D|-----------------------------------------------------------------------|
A|-----------------------------------------------------------------------|
E|-----------------------------------------------------------------------|
                                         With slide


Outro solo

E|-----------------------------------------------------------------------|
B|-----------------------------------------------------------------------|
G|--4b--4b--4b--4b-r4-p2-----2\------------------------------------------|
D|------------------------4----------------------------------------------|
A|-----------------------------------------------------------------------|
E|-----------------------------------------------------------------------|




E|-----------------------------------------------------------------------|
B|------14-17-14--------14-----14----14----------------------------------|
G|--16b-------------16b----16b----16----16-14----16-14----------14\------|
D|--------------------------------------------16-------16-14-16----------|
A|-----------------------------------------------------------------------|
E|-----------------------------------------------------------------------|
   < - - 3x - - >




E|--19b~---r19-p17-19----pb19-r19~---17--------17------------------------|
B|--------------------------------------17h-19---17-19/22\19~------------|
G|-----------------------------------------------------------------------|
D|-----------------------------------------------------------------------|
A|-----------------------------------------------------------------------|
E|-----------------------------------------------------------------------|



E|-----------------------------------------------------------------------|
B|-----------------------------------------------15b-r15-15b-r15-14~-----|
G|--4b----4b-r4-p2-4b--2-4---2~-----/14(\/)(\/)--------------------------|
D|-------------------------4---------------------------------------------|
A|-----------------------------------------------------------------------|
E|-----------------------------------------------------------------------|




E|---------14--------14-------------------14-----------------------------|
B|------14----17p-14----------14-17-14-17----17-14-----------------------|
G|--16b-------------------16b----------------------16-14----14(\/)(\/)---|
D|-------------------------------------------------------16--------------|
A|-----------------------------------------------------------------------|
E|-----------------------------------------------------------------------|
   < - - - - 2x - - - >



E|--------------------17b-----14---------14------------------------------|
B|-------------------------------14h-17-----17~------14h17p14----14------|
G|--2b**------------------------------------------------------16---------|
D|--------4(\)-----------------------------------------------------------|
A|-----------------------------------------------------------------------|
E|-----------------------------------------------------------------------|




E|-----------------------------------------------------------------------|
B|----------------------------------------17----(\/)(\)----14\--14\------|
G|--16p14----16p14----14------------------16b~--(\/)(\)----14\--14\------|
D|--------16-------16----16----------------------------------------------|
A|--------------------------16(\)(\)-------------------------------------|
E|-----------------------------------------------------------------------|




E|-------------------------------------------------------17b~------------|
B|----------------------------------14-17p14----14-17p14-----------------|
G|--4b**-r4-p2-4**--2**~--------/16----------16--------------------------|
D|-----------------------------------------------------------------------|
A|-----------------------------------------------------------------------|
E|-----------------------------------------------------------------------|




E|--t19/21-14h17p14-t19-17p14--------------------------------------------|
B|-----------------------------------------------------------------------|
G|-----------------------------------------------------------------------|
D|-----------------------------------------------------------------------|
A|-----------------------------------------------------------------------|
E|-----------------------------------------------------------------------|
   < - - - - - 3x - - - - - - > (fade out)
  development and support by
dmitry ivanov