rock
 
|tablatures   |lyrics   |discussion forums   |more tabs @ XGuitar.com

Kiss tabs

Plaster Caster bass tab

  Plaster Caster from the KISS lp LOVE GUN
  Bass Tabs by Steve Pomponio (spomponio@worldnet.att.net)

G:---------------------------------------------------------------------------|
D:---------------------------------------------------------------------------|
A:0-0-0-0-0-0-0-0-3-4-5-5-5-5-5-5-3-0-0-0-0-0-3-4-5--5-5-5-5-5-5-------------|
E:<-----13x----->------------------------------------------------1-1-1-1-1-1-|






G:------------------------------------5ho7-5---------------------------------|
D:-------------------------------------------7-------------------------------|
A:--------------------5-5-5-5-5-5-5-5----------0-3-0-0-0-0-0-3-4-5-5-5-5-5-5-|
E:1-1-3-3-3-3-3-3-3-3--------------------------------------------------------|






G:---------------------------------------------------------------------------|
D:---------------------------------------------------------------------------|
A:5-3-0-0-0-0-0-3-4-5-5-5-5-5-5-5---------------------------------5-5-5-5-5-5|
E:--------------------------------1-1-1-1-1-1-1-1-3-3-3-3-3-3-3-3------------|





               Pre Chorus
G:------------:--------------------------------------------------------------|
D:------------:--------------------------------------------------------------|
A:-5-5-----5-5:--------------3-4-5-5-5-5-5---------------3-4-5-5-5-5-5-------|
E:-----3-3----:0-1-3-3-3-3-3---------------0-1-3-3-3-3-3---------------1-1-1-|





                                     Chorus
G:----------------------------------:----------------------------------------|
D:----------------------------------:----------------------------------------|
A:----------------------------------:3-4-5-5-3-----------2-3-4-5-5-3---------|
E:1-1-1-1-1-3-3-3-3-3-3-3-3--5-5-5-5:----------5-1-2-3-3-------------5-0-2-3-|
                             <--4x->





G:---------------------------------------------------------------------------|
D:---------------------------------------------------------------------------|
A:--2-3-5-----------3-3-3-3-3-----------3-3---------------5-5-5-5-5----------|
E:3-------1-1-1-1-1-----------3-3-3-3-3-----3-3-5-5-5-5-5-----------5-5-5-5-5|



.

                                                   Pre Chorus & Chorus Repeat
G:------------------------------------------------:--------------------------|
D:------------------------------------------------:--------------------------|
A:-5-5-5-5-5---------------------5-5-5-5-5-----5-5:--------------------------|
E:-----------1-1-1-1-1-3-3-3-3-3-----------3-3----:--------------------------|





    Solo
G::--------------------------------------------------------------------------|
D::------------------------------------------------3-3-1-----5-5-3-----------|
A::--------3-4-5-5-5-5-5---------3-4-5-5-5-5-5---------------------5-5-5-5-5-|
E::5-5-5-5---------------5-5-5-5---------------1-1-------3-3-----------------|
  :


                                     

          Pre Chorus & Chorus Repeat
G:-------:--------------------------:|
D:-------:--------------------------:|
A:3-3----:--------------------------:|
E:----5-5:--------------------------:|
  development and support by
dmitry ivanov