rock
 
|tablatures   |lyrics   |discussion forums   |more tabs @ XGuitar.com

Kiss tabs

Partners In Crime bass tab

PARTNERS IN CRIME (from the KISS CD "KILLERS")
--------------------

Transcribed by Emil Ortenmark, emil@kissasylum.com

Tuned down 1/2-step

Comments: This is another track that is tuned right between E and Eb (well,
a little more towards the E actually) so the remedy is to tune to the album.
Just tune to that open A at the beginning and you?re home.

Key:
/    = slide up
\    = slide down
b    = bend (whole step)
b^   = bend (1/2 step)
b^^  = bend (1 1/2 steps)
pb   = pre-bend
r    = release-bend
t    = tap with righthand finger
h    = hammer-on
p    = pull-off
~    = Vibrato
*    = Natural Harmonic
#(#) = Trill
**   = Artificial Harmonic
x    = Dead notes (no pitch)
P.M. = Palm mute (- -> underneath indicates which notes)
(\)  = Dive w\bar
(/)  = Release w\bar
Tp   = Tap w\plectrum



Rhythm Fig. 1

Gb|---------------------------------------------------|
Db|---------------------------------------------------|
Ab|--0--0---------------------------------------------|
Eb|---------------------------------------------------|
   < - 2x ->


Rhythm Fig. 2

Gb|---------------------------------------------------|
Db|---------------------------------------------------|
Ab|--0--0---------------------------------------------|
Eb|----------------5\------------3--3--2--2-----------|


Rhythm Fig. 3

Gb|---------------------------------------------------|
Db|---------------------------------------------------|
Ab|--0--0---------------------------------------------|
Eb|----------------5\------------3--3--2/-------------|



Rhythm Fig. 4

Gb|---------------------------------------------------|
Db|---------------------------------------------------|
Ab|--0--0---------------------------------------------|
Eb|----------------5\--------------0--3--0------------|



Rhythm Fig. 5

Gb|---------------------------------------------------|
Db|---------------------------------------------------|
Ab|--0--0----------------------------5h7--------------|
Eb|----------------5\---------------------------------|



Rhythm Fig. 6

Gb|---------------------------------------------------|
Db|---------------------------------------------------|
Ab|--0--0--0--0--0--0--0--0--0--0--0--0--3-(0)-5------|
Eb|---------------------------------------------------|



Gb|---------------------------------------------------|
Db|------------------------------------------5~-------|
Ab|--0--0--0--0--0--0--0-------0--0----5h-7-----------|
Eb|-----------------------3---------------------------|



Rhythm Fig. 7

Gb|---------------------------------------------------|
Db|---------------------------------------------------|
Ab|--0--0--0--0--0--0--0-------0--0--0--3-(0)-5-------|
Eb|-----------------------3---------------------------|



Gb|---------------------------------------------------|
Db|------------------------------------------5~-------|
Ab|--0--0--0--0--0--0--0-------0--0----5h-7-----------|
Eb|-----------------------3---------------------------|





Rhythm Fig. 8

Gb|---------------------------------------------------|
Db|---------------------------------------------------|
Ab|--0--0--0--0--0--0--0-------0--0--0--3-(0)-5-------|
Eb|-----------------------3---------------------------|



Gb|---------------------------------------------------|
Db|---------------------------------------------------|
Ab|--0--0--0--0--0--0--0-------0--0-------------------|
Eb|-----------------------3--------------0--3--0------|



Rhythm Fig. 9

Gb|---------------------------5-----5-----------------|
Db|-----------------------/5-----5--------------------|
Ab|--3------3--3-------------------------5--3---------|
Eb|---------------------------------------------------|



Gb|---------------------------5----/9--7--5-----------|
Db|-----------------------/7-----7-----------7--------|
Ab|--5------5--5--------------------------------------|
Eb|---------------------------------------------------|



Gb|---------------------------5-----5-----------------|
Db|-----------------------/5-----5--------------------|
Ab|--3------3--3-------------------------5--3---------|
Eb|---------------------------------------------------|



Gb|---------------------------------------------------|
Db|----------------------5------5---------------------|
Ab|--5------5--5-----------------------5\-------------|
Eb|---------------------------------------------------|



Rhythm Fig. 10

Gb|---------------------------3-----3-----------------|
Db|-----------------------/3-----3--------------------|
Ab|--1------1--1-------------------------3--1---------|
Eb|---------------------------------------------------|



Gb|---------------------------3----/7--5--3-----------|
Db|-----------------------/5-----5-----------5--------|
Ab|--3------3--3--------------------------------------|
Eb|---------------------------------------------------|


Gb|---------------------------3-----3-----------------|
Db|-----------------------/3-----3--------------------|
Ab|--1------1--1-------------------------3--1---------|
Eb|---------------------------------------------------|



Gb|---------------------------------------------------|
Db|---------------------------------------------------|
Ab|--3------3--3------3--5\---------------------------|
Eb|---------------------------------------------------|




Rhythm Fig. 11

Gb|---------------------------------------------------|
Db|---------------------------------------------------|
Ab|--0--0--0--0--0--0--0--0--0--0--0--0--0------------|
Eb|-----------------------------------------0--3--0---|



Gb|---------------------------------------------------|
Db|--------------------------------------------5------|
Ab|--0--0--0--0--0--0--0--0--0--0--0--0--5h-7-----7---|
Eb|---------------------------------------------------|



Gb|---------------------------------------------------|
Db|---------------------------------------------------|
Ab|--0--0--0--0--0--0--0--0--0--0--0--0--0------------|
Eb|-----------------------------------------0--3--0---|



Gb|---------------------------------------------------|
Db|-------------------------------------/7--5---------|
Ab|--0--0--0--0--0--0--0--0--0--0--0--0--------7--5---|
Eb|---------------------------------------------------|



Gb|---------------------------------------------------|
Db|--7------------------------------------------------|
Ab|-----0--0--0--0--0--0--0--0--0--0--0--0------------|
Eb|-----------------------------------------0--3--0---|



Gb|---------------------------------------------------|
Db|---------------------------------------------------|
Ab|--0--0--0--0--0--0--0--0---------------------------|
Eb|---------------------------------------------------|
                            Fade out




Riff 1

Gb|---------------------------------------------------|
Db|--------------7--5---------------------------------|
Ab|------12\-----------7------------------------------|
Eb|---------------------------------------------------|
  development and support by
dmitry ivanov