rock
 
|tablatures   |lyrics   |discussion forums   |more tabs @ XGuitar.com

Kiss tabs

Parasite guitar tab

Parasite by KISS
From the album Hotter Than Hell
--------------------------------------------------------------------



   intro (rhythm 1)                    repeat
e:--------------------------------------------|
B:--------------------------------------------|
G:--------------------------------------------|
D:--------------------------------------------|
A:--------------------------------------------|
E:-1/2/3-3-3--3-1/2/3-3-33-1/2/3-3-3--3-1/2/3-|




  "She'll always be...."                                     repeat
e:------------------------------------------------------------------------|
B:------------------------------------------------------------------------|
G:-3--3---------3--3------------------------------------------------------|
D:-3--3-----3---3--3------6~----------------------------------------------|
A:-1--1-----3---1--1------6~----------------------------------------------|
E:-------3--1--------3-1--4~----1/2/3-3-3--3-1/2/3-3-33-1/2/3-3-3-3-1/2/3-|


                                                           

   "Parasite lady..."                             repeat
e:--------------------------------------------------------|
B:-------------------8--10--8--3--------------------------|
G:--3/5-5---10-8~----8--10--8--3---3/5--5--------8--8--8--|
D:--3/5-5---10-8~----8--10--8--3---3/5--3--3~----8--8--8--|
A:--1/3-3---8--6~------------------1/3--3--3~----6--6--6--|
E:-----------------------------------------1~-------------|





e:---------------------------------------------------------------------------|
B:---------------------------------------------------------------------------|
G:---------------------------------------------------------------------------|
D:--------5--------5-------5----5-3---------------------3-------------3------|
A:-----------------------------------5-4-3-1-----3-------------3-------------|
E:----3-3-----3-3-----3-3--------------------3-----1--1---1--1---1--1---2---3|


                                                                   


e:----------------------------------------------------------------|
B:----------------------------------------------------------------|
G:----------------------------------------------------------------|
D:----5------5-------5--5-3-------------------3--------------3----|
A:--------------------------5-4-3-1----3--------------3-----------|
E:--3---3--3----3--3----------------3----1--1---1--1----1--1----2-|





e:---------------------------------------------------------------------------|
B:---------------------------------------------------------------------------|
G:---5b-5b-5b-5b-5b-5b-5b-5b-5b-5b\5-3------3~--5b/5/5b/5/5b/5/5b/5/5b/5/5b/5|
D:--------------------------------------3/5----------------------------------|
A:---------------------------------------------------------------------------|
E:---------------------------------------------------------------------------|





e:---------------------------------------------------------------------------|
B:---------3~----6b/6/6b/6/6b/6/6b/6/6b/6/6b/6/6b/6--6b/6--------------------|
G:b/5------3~---------------------------------------------3-3/5/3-5/5b--5b/5-|
D:-----3-5-------------------------------------------------------------------|
A:---------------------------------------------------------------------------|
E:---------------------------------------------------------------------------|




                                                   7x
e:---------------------------------------------6-6-6-6-6/5/3-----------------|
B:------------------------------------------------------------666666653------|
G:-3/5/3-5/3---3---3-5b-xx--5-3----------------------------------------555555|
D:-----------5---5--------------5-4-3-3-3-3----------------------------------|
A:---------------------------------------------------------------------------|
E:---------------------------------------------------------------------------|





e:-------------------------------------------------------------------------|
B:--------------------------------------------6/8-8b(11)-b(6)-6/8-8b-8b-8b-|
G:55-53--5/3--3---3---5-5-5-5-5-5-5-5---5b-5b------------------------------|
D:-----5----5---5------5-5-5-5-5-5-5-5-------------------------------------|
A:-------------------------------------------------------------------------|
E:-------------------------------------------------------------------------|


  development and support by
dmitry ivanov