rock
 
|tablatures   |lyrics   |discussion forums   |more tabs @ XGuitar.com

Kiss tabs

Parasite bass tab

Song Title: Parasite(corrected version)
Artist: KISS
----------------------------------------------

Intro 
G---------------------
D---------------------
A---------------------
E--0-1-2-2-2--0-1-2-2-

Verse
G-------------------------
D-------------------------              Then play intro
A-------------------------
E--3-5-5--2-0-5-0--2-0-3--

Chorus
G--------------------------------------
D--------------------------------------
A---------7-9-7------------------------
E--5--7---------7--5--7-7--0--7-7-7-7--

"You wanted the best, you got the best, The hottest band in the world, KISS!!"


Submitted by:  Dana Kenneth Palmer (djpalmer@cybersol.com)
  development and support by
dmitry ivanov