rock
 
|tablatures   |lyrics   |discussion forums   |more tabs @ XGuitar.com

Kiss tabs

Paralyzed bass tab

PARALYZED (from the KISS CD "REVENGE")
--------------------

Transcribed by Emil Ortenmark, emil@kissasylum.com

Tuned down a whole-step to D

Comments: This tabs looks kind of awful but it's not as bad as it looks.
Just lock in with the sixteenth-notes and you'll be fine. Gene adds a few
of his standard fills: little slides and a very cool high register third
(Riff ).


Key:
/    = slide up
\    = slide down
b    = bend (whole step)
b^   = bend (1/2 step)
b^^  = bend (1 1/2 steps)
pb   = pre-bend
r    = release-bend
t    = tap with righthand finger
h    = hammer-on
p    = pull-off
~    = Vibrato
*    = Natural Harmonic
#(#) = Trill
**   = Artificial Harmonic
x    = Dead notes (no pitch)
P.M. = Palm mute (- -> underneath indicates which notes)
(\)  = Dive w\bar
(/)  = Release w\bar
Tp   = Tap w\plectrum


Rhythm Fig. 1

F|-----------------------------------------------------------------|
C|-----------------------------------------------------------------|
G|-----------------------------------------------------------------|
D|-0h2-2-2-2-2-2-2-2-2-2-2-2-2-2-2-0h2-2-2-2-2-2-2-2-2-2-2-2-2-2-2-|



F|-----------------------------------------------------------------|
C|-----------------------------------------------------------------|
G|-----------------------------------------------------------------|
D|--0h2-2-2-5----0h2-2-2-5---0h2-2-2-5---0-2--3--4--5-0------------|



Rhythm Fig. 2

F|-----------------------------------------------------------------|
C|-----------------------------------------------------------------|
G|-----------------------------------------------------------------|
D|--0h2-2-2-2-2-2-2-2-2-2-2-2-2-2-2-0h2-2-2-2-2-2-0-2--3--4--5-0---|




Rhythm Fig. 3

F|-----------------------------------------------------------------|
C|-----------------------------------------------------------------|
G|-----------------------------------------------------------------|
D|--0h2-2-2-2----0h2-2-2-2----0h2-2-2-2----2----0h2-0--------------|




Rhythm Fig. 4

F|-----------------------------------------------------------------|
C|-----------------------------------------------------------------|
G|--5--5-5-5-5---5-5-5-5--5-5----5-5-5-5---5-5-5-5---5/------------|
D|-----------------------------------------------------------------|



F|-----------------------------------------------------------------|
C|-----------------------------------------------------------------|
G|----------------------5--------/7--------------------------------|
D|--0-0-0-0-0-0-0-0-0-0---7-5-3-0----------0-0--2--3--0------------|



F|-----------------------------------------------------------------|
C|-----------------------------------------------------------------|
G|--5--5-5-5-5---5-5-5-5--5-5----5-5-5-5---5-5-5-5---5/------------|
D|-----------------------------------------------------------------|



F|-----------------------------------------------------------------|
C|-----------------------------------------------------------------|
G|--------------------------5-------------------------------0------|
D|--0-0-0-0-0-0-0-0-0-0-0-0---7p5-0-2-2-2-2-2-2-2-2---2------------|




Rhythm Fig. 5

F|-----------------------------------------------------------------|
C|-----------------------------------------------------------------|
G|--0--2-2--------------0----------0---------------0---------------|
D|-------------------------0-0--------0-0-----2--------------------|




Rhythm Fig. 6

F|-----------------------------------------------------------------|
C|------------------------------------------------0----------------|
G|--0--2-2-------------0----------------------------2-0-2----------|
D|------------------------0-0-----0--2-2------0h2------------------|




Rhythm Fig. 7a

F|-----------------------------------------------------------------|
C|----------12\----------------------------------------------------|
G|-----------------------2-2-2-2-----------------------------------|
D|--------------------------------0-2--3--4--5-0-------------------|




Rhythm Fig. 7b

F|-----------------------------------------------------------------|
C|-----------------------------------------------------------------|
G|-----------------------2-2-2-2-----------------------------------|
D|----------14\-------------------0-2--3--4--5-0-------------------|



Rhythm Fig. 8

F|-----------------------------------------------------------------|
C|-----------------------------------------------------------------|
G|--2--4-2-4-4--2---4-2-4---2----4-2-4-4--2---4-2-4-2--------------|
D|----------------------------------------------------4-2----4-4\--|
  < - - - - - - - - - - - - - - - 2x - - - - - - - - - - - - - - >


F|-----------------------------------------------------------------|
C|-----------------------------------------------------------------|
G|-----------------------------------------------------------------|
D|--2---4--4\---4----2h4p2--0--------------------------------------|


Rhythm Fig. 9

F|-----------------------------------------------------------------|
C|-----------------------------------------------------------------|
G|----2-2-2-2---2-2-2-2---2----------------------------------------|
D|-----------------------------------------------------------------|



Riff 1

F|-----------------------------------------------------------------|
C|-----------------------------------------------------------------|
G|-----------------------------------------------------------------|
D|--7\-------------------------------------------------------------|



Riff 2

F|-----------------------------------------------------------------|
C|-----------------------------------------------------------------|
G|-----------------------------------------------------------------|
D|--12\------------------------------------------------------------|



Riff 3

F|----------11-12-13-----------------------------------------------|
C|-----------------------------------------------------------------|
G|-----------------------------------------------------------------|
D|---------------------------------12\-----------------------------|
  development and support by
dmitry ivanov