rock
 
|tablatures   |lyrics   |discussion forums   |more tabs @ XGuitar.com

Kiss tabs

Only You guitar tab

Only You by KISS
From the album The Elder
--------------------------------------------------------------------


           "Only you..."
   intro---repeat for verses
e:---------2---------------------------------------------3-------------------|
B:---------3----------------------3----------------------3-------------------|
G:---2--2--2----2--2--2--2--3--3--3----3--3--3--3--0--0--0----0--0--0--0--2--|
D:---0--0--0----0--0--0--0--0--0--0----0--0--0--0--0--0--0----0--0--0--0--0--|
A:---------------------------------------------------------------------------|
E:---------------------------------------------------------------------------|
     ^palm mute ^  ^  ^  ^  ^  ^       ^  ^  ^  ^  ^  ^       ^  ^  ^  ^  ^




e:---2----------------------3----------------------3----------------------2--|
B:---3----------------------3----------------------3----------------------3--|
G:2--2----2--2--2--2--2--2--2----2--2--2--2--0--0--0----0--0--0--0--2--2--2--|
D:0--0----0--0--0--0--3--3--3----3--3--3--3--2--2--2----2--2--2--2--0--0--0--|
A:---------------------------------------------------------------------------|
E:---------------------------------------------------------------------------|
  ^       ^  ^  ^  ^  ^  ^       ^  ^  ^  ^  ^  ^       ^  ^  ^  ^  ^  ^




e:--------------------3----|
B:--------------------3----|
G:--2--2--2--2--2--2--2----|
D:--0--0--0--0--0--0--0----|
A:-------------------------|
E:-------------------------|
    ^  ^  ^  ^  ^  ^


    "only you know the secrets ..................but the truth....."
    similar pattern for 2nd verse
e:---2--2------------------------------------------------3--3----------------|
B:---3--3----------------------3--3----------------------3--3----------------|
G:---2--2--2--2--2--2--2--2----3--3--3--3--3--3--3--3----0--0--0--0--0--0--0-|
D:---0--0--0--0--0--0--0--0----0--0--0--0--0--0--0--0----0--0--0--0--0--0--0-|
A:---------------------------------------------------------------------------|
E:---------------------------------------------------------------------------|




                                                                        "....
e:------2--2----------------------3--3----------------------3--3-------------|
B:------3--3----------------------3--3----------------------3--3-------------|
G:-0----2--2--2--2--2--2--2--2----2--2--2--2--2--2--2--2----0--0--0--0--0--0-|
D:-0----0--0--0--0--0--0--0--0----3--3--3--3--3--3--3--3----2--2--2--2--2--2-|
A:---------------------------------------------------------------------------|
E:---------------------------------------------------------------------------|




  .are the way..."                                                        "te
e:---------2~----------------------------------------------------------------|
B:---------3~----------------------------------------------------------------|
G:-0--0----2~-------------------5--7----5--7--------5--7----5--7-------5--7--|
D:-2--2----0~-------------------7--7----7--7---7----7--7----7--7---7---7--7--|
A:----------------------0---0------------------0-------------------0---------|
E:---------------------------------------------------------------------------|


                                              

  ll me the secret.."  "...i wanna know..."
e:-------------------------------------------|
B:-------------------------------3-----------|
G:--5--7----7~----7--7----7--7---2-----------|
D:--7--7----8~----8--8----5--5---0-----------|
A:-------------------------------------------|
E:-------------------------------------------|
     repeat                    to verse



               "I cant believe this is true..."                    repeat
e:---------------------------------------------------------------------------|
B:------3~-------3------2------3~------3-----3------3------3-----2------3~---|
G:------2~-------2------2------0~------0-----2------2------2-----2------0~---|
D:------2~-------2------2------2~------2---0-0------2------2-----2------2~---|
A:---0---------0------0------3-------3------------0------0-----0------3------|
E:---------------------------------------------------------------------------|




                "Only you..."
e:--3------------------------------------------------------------------------|
B:--3---3--------------------------------------------------------------------|
G:--0---2--------------------------------------------------------------------|
D:--0---0--------------------------------------------------------------------|
A:--x---0---------------------2-----------------2-----2-------------2----2---|
E:--3-------------------------0---5b---0---3b---0-----0--5b--0--3b--0----0--3|


                                                    


e:---------------------------3---2-----2-----------|
B:---------------------------3---3-----3-----------|
G:---------------------------2---2-----2---2-------|
D:---------------------------0---0-----0---2-------|
A:---2----2-------------2------------------0-------|
E:b--0----0--5b--0--3b--0----------------------0---|
                                      repeat



                         "In every age..."     "in every time"    "..hero is
e:------3---2-----3-3-3---------------------2--------------------3-----------|
B:------3---3-----3-3-3---------------------3--------------------3-----------|
G:------2---2-----0-0-0---------------------2--------------------0-----------|
D:------0---0-----0-0-0---------------------0--------------------0-----------|
A:----------------x-x-x---------------------0--------------------x-----------|
E:----------------3-3-3------------------------------------------3-----------|




  born"
e:-----------------------------------------12--------------------------------|
B:-------------------------------12~---12-----12~----------------------------|
G:-----4-4-4-4-4-4-4-4-4-4-4-------------------------7~---6---4---2---2~-----|
D:-----4-4-4-4-4-4-4-4-4-4-4-------------------------5~---4---2---0---0~----9|
A:-----2-2-2-2-2-2-2-2-2-2-2------------------------------------------------7|
E:--------------------------------------------------------------------------0|


                                                                        


e:-----------------12--------------------------------------------------|
B:--------12~---12----12~----------------------------------------------|
G:----------------------------7~---6---4---2---------------------------|
D:---9~-----------------------5~---4---2---0---------------------------|
A:---7~------------------------------------------2------------------2--|
E:---0~------------------------------------------0----0--5b--0--3b--0--|
                                                               etc




e:---------------------|
B:---------------------|
G:---7~----6----4----2~|
D:---5~----4----2----0~|
A:---------------------|
E:---------------------|


  development and support by
dmitry ivanov