rock
 
|tablatures   |lyrics   |discussion forums   |more tabs @ XGuitar.com

Kiss tabs

Only You bass tab

ONLY YOU (from the KISS CD "THE ELDER")
--------------------

Transcribed by Emil Ortenmark, emil@kissasylum.com

Standard tuning

Comments: This is a full transcription so that means you¥ll have to
deal with bar-lines again. Gene plays lots of cool stuff here and
very little is played the same way twice. I¥ve omitted the first
bars here since the bass plays nothing in them.


Key:
/    = slide up
\    = slide down
b    = bend (whole step)
b^   = bend (1/2 step)
b^^  = bend (1 1/2 steps)
pb   = pre-bend
r    = release-bend
t    = tap with righthand finger
h    = hammer-on
p    = pull-off
~    = Vibrato
*    = Natural Harmonic
#(#) = Trill
**   = Artificial Harmonic
x    = Dead notes (no pitch)
P.M. = Palm mute (- -> underneath indicates which notes)
(\)  = Dive w\bar
(/)  = Release w\bar
Tp   = Tap w\plectrum




G|-----------------7--|------------------|----------5----7-------------|
D|----------7---------|------------------|-----------------------------|
A|--------------------|------------------|-----------------------------|
E|--------------------|------------------|-----------------------------|



G|--7\-------2--------|----------2/---7\---|--5------------------------|
D|--------------------|--------------------|-------------7----5--------|
A|--------------------|--------------------|---------------------------|
E|--------------------|--------------------|---------------------------|



G|-------------------|-------------------|-----------------------------|
D|--7----------------|--------------7\---|--0--------------------------|
A|-------------------|-------------------|-----------------------------|
E|-------------------|-------------------|-----------------------------|



G|--3----------------|-------------------|-----------------------------|
D|-------------------|--5----------------|--7--------------------------|
A|-------------------|-------------------|-----------------------------|
E|-------------------|-------------------|-----------------------------|



G|-------------------|-------------------|-----------------------------|
D|--3----------------|--2----------------|--0--------------------------|
A|-------------------|-------------------|-----------------------------|
E|-------------------|-------------------|-----------------------------|



G|---------------------|---------------------|-------------------------|
D|---------------------|---------------------|-------------------------|
A|----2------3----4----|--5--5------------0--|--5--5------------0------|
E|---------------------|---------------------|-------------------------|



G|---------------------|---------------------|-------------------------|
D|---------------------|------------------2--|--3----------------------|
A|--5--5------------0--|--5--5---------------|-------------------------|
E|---------------------|---------------------|-------------------------|



G|--------------------|-------------------|----------------------------|
D|--2--------------2--|--0----------------|----------------------------|
A|--------------------|-------------------|----2------3----4-----------|
E|--------------------|-------------------|----------------------------|



G|--------------------|--------------------|---------------------------|
D|--------------------|--------------------|---------------------------|
A|--5--------------0--|--5--------------0--|--5--------------0---------|
E|--------------------|--------------------|---------------------------|



G|---------------------|-----------2---------|-------------------------|
D|-----------0----2----|--3-------------3----|--2--------0-------------|
A|--5------------------|---------------------|----------------3--------|
E|---------------------|---------------------|-------------------------|



G|-------------------|--------------------|----------------------------|
D|--0----------------|--------------------|----------------------------|
A|-------------------|--------------------|--0--------3--0-----0-------|
E|-------------------|--------------10\---|-----------------3----------|



G|----------------------|----------------------|-----------------------|
D|----------------------|-------------0--------|-----------------------|
A|----------3--0-----0--|----------3-----3--1--|----------1--------0---|
E|----------------3-----|----------------------|-------------1--3------|



G|----------------------|----------------------|-----------------------|
D|----------------------|----------0-----------|-------------0---------|
A|----------3--0-----0--|-------------3-----0--|----------3-----3--1---|
E|----------------3-----|----------------3-----|-----------------------|



G|----------------------|----------------------|-----------------------|
D|----------------------|----------------------|-------------0---------|
A|----------1--------0--|----------3--0-----0--|----------3-----3--0---|
E|-------------1--3-----|----------------3-----|-----------------------|



G|----------2--0--------|----------------------|-----------------------|
D|----------------2-----|----------------------|-------------0---------|
A|-------------------1--|----------1--------0--|----------3-----3--0---|
E|----------------------|-------------1--3-----|-----------------------|



G|----------------------|----------2--0--------|-----------------------|
D|----------0-----------|----------------2-----|-----------------------|
A|-------------3-----0--|-------------------1--|----------3--3----5----|
E|----------------3-----|----------------------|-----------------------|



G|-------------------|--------------------|----------------------------|
D|-------------------|--------------------|----------------------------|
A|--5----------------|--5--------------5--|--5-------------------------|
E|-------------------|--------------------|----------------------------|



G|---------------------|-----------2---------|-------------------------|
D|-----------0----2----|--3-------------3----|--2--------0-------------|
A|--5------------------|---------------------|----------------3--------|
E|---------------------|---------------------|-------------------------|



G|-------------------|------------------|------------------------------|
D|--0----------------|------------------|-----7------------------------|
A|-------------------|------------------|--0---------------------------|
E|-------------------|------------------|------------------------------|



G|----------------------|-----5--------------|-----5---------7---------|
D|-----7---------7------|--------------------|-------------------------|
A|--0---------0---------|--3-----------------|--3---------5------------|
E|----------------------|--------------------|-------------------------|
                          Let ring - - - - - - - - - - - - - - >


G|-----------------------|----------------------|----------------------|
D|-------5--4------------|-----5\--------7\-----|----------------------|
A|----0--------5--0------|--0---------0---------|--3-------------------|
E|-----------------------|----------------------|----------------------|



G|--------------------|-----------------------|------------------------|
D|----5---------------|-------5--4------------|-----5\--------7\-------|
A|---------5----------|----0--------5--0------|--0---------0-----------|
E|--------------------|-----------------------|------------------------|



G|-----------------------|-----5---------7\-----|----------------------|
D|-------5--4------------|----------------------|-------5--4-----------|
A|----3--------5--3\-----|--3---------5---------|----0--------5--0-----|
E|-----------------------|----------------------|----------------------|
                           Let ring - - - - - >


G|----------------------|-------------------|--------------------------|
D|-----5\--------7\-----|-------------------|----5---------------------|
A|--0---------0---------|--3----------------|---------5----------------|
E|----------------------|-------------------|--------------------------|



G|-----------------------|----------------------|----------------------|
D|-------5--4------------|-----5\--------7\-----|-------5--4-----------|
A|----0--------5--0------|--0---------0---------|----3--------5--3\----|
E|-----------------------|----------------------|----------------------|



G|-----5\--------7/-----|-----------------------|----------------------|
D|----------------------|-------5--4------------|-----5\--------7\-----|
A|--3---------5---------|----0--------5--0------|--0---------0---------|
E|----------------------|-----------------------|----------------------|
    Let ring - - - - >


G|-------------------|---------------------|---------------------------|
D|-------------------|----5----------------|---------------------------|
A|--3----------------|---------5-----------|---------------------------|
E|-------------------|------------------0--|---------------------------|



G|--------------------|------------------|-----------------------------|
D|--------------------|------------------|--5--------------------------|
A|--------------------|------------------|-----5------5----------------|
E|------------0----0--|------------------|---------------5----0--------|




G|---------------------|-----------------------|-----------------------|
D|---------------------|-----------------------|-----------------------|
A|---------------------|-----------------------|-----------------------|
E|------0----0----0----|--0----0----0----3--0--|----0--5--0--3--0------|



G|--------------------|-----------------------|------------------------|
D|-5------------------|-----------------------|------------------------|
A|----5----5----------|-----------------------|------------------------|
E|------------5----0--|---0--5--0--3--0----0--|--5--0--3--0----0--3--0-|



G|-----------------------|---------------------|-----------------------|
D|-----------------------|--5------------------|-----------------------|
A|-----------------------|-----5---------------|-----------------------|
E|----0--5--0--3--0------|------------------3--|--3--------------------|



G|---------------------|------------------|----------------------------|
D|---------------------|------------------|----5p-4-----5p-4-----------|
A|------------------5--|------------------|----------5--------5--------|
E|----3------3---------|------------------|----------------------3-----|



G|-------------------|-------------------|-----------------------------|
D|-------------------|-------------------|-----------------------------|
A|-------------------|--------------0----|--2--2--2--2--2--2--2--2-----|
E|--3----------------|-------------------|-----------------------------|



G|-------------------------|-------------------|----------9------------|
D|-------------------------|-------------------|----7h-9---------------|
A|--2--2--2--2--2--2--2/---|-------------------|-----------------------|
E|-------------------------|--0----------------|-----------------------|
                                                  Let ring - - - >


G|------------------|-------------------|------------------------------|
D|------------------|--5----------------|--4---------------------------|
A|------------------|-------------------|-------7----5-----------------|
E|------------------|-------------------|------------------------------|



G|--------------------|-------------------|----------------------------|
D|--------------------|-------------------|----------------------------|
A|--5--------7--------|-------------------|----------------------------|
E|--------------------|--0----------------|----------------------------|



G|-------------------|---------------------|---------------------------|
D|--5----------------|--4------------------|---------------------------|
A|-------------------|-------7----5--------|---------------------------|
E|-------------------|---------------------|----0--5--0--3--0----0-----|



G|-------------------------|--------------------|----------------------|
D|-------------------------|--------------------|--5-------------------|
A|-------------------------|--------------------|-----5-----5----------|
E|--5--0--3--0----0--3--0--|---0--5--0--3--0----|--------------5----0--|



G|----------------------|-------------------------|--------------------|
D|----------------------|-------------------------|--------------------|
A|----------------------|-------------------------|--------------------|
E|--0--5--0--3--0----0--|--5--0--3--0----0--3--0--|---0--5--0--3--0----|



G|---------------------|----------------------|------------------------|
D|-5-------------------|----------------------|------------------------|
A|----5-----5----------|----------------------|------------------------|
E|-------------5----0--|--0--5--0--3--0----0--|--5--0--3--0----0--3--0-|



G|-----------------------|-------------------|-------------------------|
D|-----------------------|--5----------------|--4----------------------|
A|-----------------------|-------------------|-------7----5------------|
E|----0--5--0--3--0------|-------------------|-------------------------|
  development and support by
dmitry ivanov