rock
 
|tablatures   |lyrics   |discussion forums   |more tabs @ XGuitar.com

Kiss tabs

Nothin' To Lose bass tab

Nothin' To Lose

Bass Tabs by Johan Linden (johan.linden@mbox304.swipnet.se)

Fig. numbering follows rhythm figs in Mark Perillo guitar tabs

Fig.1
G:|----------------------------|---------------------------------|------------|
D:|----------------------------|---------2-----0-----2--5\4--2---|------------|
A:|----------------------------|---------------------------------|------------|
E:|-3\2--0~--------------------|-3\2--0-----0-----0--------------|---3~-------|
    <-----------2x------------>  <------------2x------------->

Fig.2/2a
G:|--------------------------------------------------------|
D:|-----------2-2-----------------2------------------------|
A:|-------2-4-----4-2---------2-4--------------------------|
E:|-0-0-4-------------4---0-0--------0----------3-2-0------|
    <--------3x------->                        

Fig.3
G:|----------------------------------------------------|
D:|----------------------------------------------------|
A:|-----4-----2--------4-------------------------------|
E:|--2-----2--------2-----2--3-3-3-3-3-3-3-3-3---------|

Fig.4
G:|-------------------------------------------------------|------------------|
D:|-----------------------------6--9--6-------------------|------------------|
A:|-----4--7--4-----4--5--6--7-----------7--5--4----------|------------------|
E:|--5-----------5--------------------------------7-------|-5---5---5-5-6-7--|
     <---------------------3x--------------------->

Fig.5
G:|------------------------------------------|
D:|---------2-----0-----2--5\4--2------------|
A:|------------------------------------------|
E:|-3\2--0-----0-----0-----------------------|
    <-------------2x------------>

Fig.6
G:|---------------------------------2-2----------|
D:|-----------2-2---------------2-4-----4-2------|
A:|-------2-4-----4-2-----0-0-4-------------4----|
E:|-0-0-4-------------4--------------------------|
    <-----------------2x-------------------->

Fig. 7
G:|---------------------------------|
D:|---------------------------------|
A:|---------------------------------|
E:|-0-------------------------------|
    Ride on build-up

Fig.8
G:|-------------------------------------------------------|
D:|-----------------------------6--9--6-------------------|
A:|-----4--7--4-----4--5--6--7-----------7--5--4----------|
E:|--5-----------5--------------------------------7-------|
  development and support by
dmitry ivanov