rock
 
|tablatures   |lyrics   |discussion forums   |more tabs @ XGuitar.com

Kiss tabs

Not For The Innocent bass tab

NOT FOR THE INNOCENT (from the KISS CD "LICK IT UP")
--------------------

Transcribed by Emil Ortenmark, emil@kissasylum.com

Standard tuning

Comments:


Key:
/    = slide up
\    = slide down
b    = bend (whole step)
b^   = bend (1/2 step)
b^^  = bend (1 1/2 steps)
pb   = pre-bend
r    = release-bend
t    = tap with righthand finger
h    = hammer-on
p    = pull-off
~    = Vibrato
*    = Natural Harmonic
#(#) = Trill
**   = Artificial Harmonic
x    = Dead notes (no pitch)
P.M. = Palm mute (- -> underneath indicates which notes)
(\)  = Dive w\bar
(/)  = Release w\bar
Tp   = Tap w\plectrum



Rhythm Fig. 1

G|-------------------------------------------------|
D|-------------------------------------------------|
A|-------------------------------------------------|
E|--0--0--0--0--0--0--0--0-------------------------|



Rhythm Fig. 2

G|-------------------------------------------------|
D|-------------------------------------------------|
A|-------------------------------------------------|
E|--0--0--0--0--0--0--12\--------------------------|



Rhythm Fig. 3

G|-------------------------------------------------|
D|-------------------------------------------------|
A|-------------------------------0-----------------|
E|--0------------------0----3----------------------|



G|-------------------------------------------------|
D|-------------------------------------------------|
A|-------------------------------0------5\---------|
E|--0------------------0----3----------------------|



G|-------------------------------------------------|
D|-------------------------------------------------|
A|-------------------------------0-----------------|
E|--0------------------0----3---------0--2---------|



Rhythm Fig. 4a

G|-------------------------------------------------|
D|-------------------------------------------------|
A|-------------------------------------------------|
E|--3--3--3--3--3--3--3--3--3--3--3--3--3--0----5--|



G|-------------------------------5-----------------|
D|-------------------------------------------------|
A|--------------------------2---------2---------0--|
E|--5--5--5--5--5--5--5--5------------------0-3----|



G|-------------------------------------------------|
D|-------------------------------------------------|
A|--2--2--3p-2--2--2--3p-2----2--3p-2--5/-7--7-----|
E|-------------------------------------------------|



Rhythm Fig. 4b

G|-------------------------------------------------|
D|-------------------------------------------------|
A|-------------------------------------------------|
E|--3--3--3--3--3--3--3--3--3--3--3--3--3--0----5--|



G|-------------------------------------------------|
D|-------------------------------------------------|
A|-------------------------------------------------|
E|--5--5--5--5--5--5--5--5--5\---------------------|


Rhythm Fig. 5a
G|-------------------------------------------------|
D|-------------------------------------------------|
A|--2----------------------5-----------------------|
E|-------------------------------------------------|



Rhythm Fig. 5b

G|-------------------------------------------------|
D|-------------------------------------------------|
A|--2----------------------5--5--------------------|
E|-------------------------------------------------|



Rhythm Fig. 6a

G|-------------------------------------------------|
D|-------------------------------------------------|
A|------------0-------------------0------5---------|
E|--0----3--------------0----3---------------------|



Rhythm Fig. 6b

G|-------------------------------------------------|
D|-------------------------------------------------|
A|------------0-------------------0----------------|
E|--0----3--------------0----3-----------0--2------|



Rhythm Fig. 7a

G|-------------------------------------------------|
D|-------------------------------------------------|
A|--2-----------------2--3------3--5---------------|
E|-------------------------------------------------|



Rhythm Fig. 7b

G|-------------------------------------------------|
D|--------------------5----------------------------|
A|--2--------------------5------5------------------|
E|---------------------------------5---------------|



Riff 1

G|-------------------------------------------------|
D|-------------------------------------------------|
A|-------------------------------------------------|
E|--12\--------------------------------------------|


Riff 2

G|-------------------------------------------------|
D|-------------------------------------------------|
A|------5\-----------------------------------------|
E|-------------------------------------------------|
  development and support by
dmitry ivanov