rock
 
|tablatures   |lyrics   |discussion forums   |more tabs @ XGuitar.com

Kiss tabs

No, No, No bass tab

NO, NO, NO (from the KISS CD "CRAZY NIGHTS")
--------------------

Transcribed by Emil Ortenmark, emil@kissasylum.com

Standard tuning

Comments: Wouldn't surprise me if Eric wrote most of these riffs. I don't
really like this song, it's too...well, metal almost. It just doesn't fit
KISS somehow. There are quite a few notes that almost sound muted and the
overall sound of the bass is very midrangey and with a pronounced "plink"
in every pick stroke. Also, check out the serious dissonance in Rhy. Fig
where the bass plays an F# against the G5 on the guitar. Ouch!


Key:
/    = slide up
\    = slide down
b    = bend (whole step)
b^   = bend (1/2 step)
b^^  = bend (1 1/2 steps)
pb   = pre-bend
r    = release-bend
t    = tap with righthand finger
h    = hammer-on
p    = pull-off
~    = Vibrato
*    = Natural Harmonic
#(#) = Trill
**   = Artificial Harmonic
x    = Dead notes (no pitch)
P.M. = Palm mute (- -> underneath indicates which notes)
(\)  = Dive w\bar
(/)  = Release w\bar
Tp   = Tap w\plectrum







Rhythm Fig. 1a

G|---------------------------------------------------------------|
D|---------------------------------------------------------------|
A|---------------------------------------------------------------|
E|--0-----------------------0-2p0-3p0-0-0--0-2p0-3p0-5p0-3p0-0---|



G|---------------------------------------------------------------|
D|---------------------------------------------------------------|
A|-------------------------------------------5-5-----------------|
E|--0------------------------------3p0-0-0---------5-5-----------|



G|---------------------------------------------------------------|
D|---------------------------------------------------------------|
A|---------------------------------------------------------------|
E|--0-0----------------------0-2p0-3p0-0-0--0-2p0-3p0-5p0-3p0-0--|



G|-------------------------------------4----4--4p2---------------|
D|---------------------------------4---------------4-------------|
A|-----------------------------2---------------------------------|
E|--0-------------------12\--------------------------------------|



Rhythm Fig. 1b

G|---------------------------------------------------------------|
D|---------------------------------------------------------------|
A|---------------------------------------------------------------|
E|--0-----------------------0-2p0-3p0-0-0--0-2p0-3p0-5p0-3p0-0---|



G|---------------------------------------------------------------|
D|------------------------------------------------7-7/-----------|
A|------------------------------------------5-5------------------|
E|--0-----------------------------3p0-0-0------------------------|



G|---------------------------------------------------------------|
D|---------------------------------------------------------------|
A|---------------------------------------------------------------|
E|--0-0----------------------0-2p0-3p0-0-0--0-2p0-3p0-5p0-3p0-0--|



G|-------------------------------------------4----4--4p2---------|
D|---------------------------------------4---------------4-------|
A|---------------------------14\-0---2---------------------------|
E|--0------------------------------------------------------------|




Rhythm Fig. 2

G|-----7*-7*-----------------------------------------------------|
D|--0--------7*--------------------------------------------------|
A|--------------x--x-x-x-----------------------------------------|
E|-----------------------0h1-------1--1-1-1----1-1---------------|



G|---------------------------------------------------------------|
D|---------------------------------------------------------------|
A|----------------------------5--5--5--5--5--5--5--5-------------|
E|--3----3--3--3--3--3-3-3---------------------------1-----------|



G|---------------------------------------------------------------|
D|---------------------------------------------------------------|
A|-------------------------------------------0--2----------------|
E|----1--1--1--1--1--1--1----1---0---1---3-----------------------|



Rhythm Fig. 3a

G|---------------------------------------------------------------|
D|---------------------------------------------------------------|
A|---------------------------------------------------------------|
E|--3p0-0-0--0-0--3--3--3--3--3p0-0-0--0-0--2--2--2--2-----------|



G|---------------------------------------------------------------|
D|---------------------------------------------------------------|
A|---------------------------------------------------------------|
E|--3p0-0-0--0-0--1--1--1--1--3p0-0-0---3p0-0-0---3p0------------|



Rhythm Fig. 3b

G|---------------------------------------------------------------|
D|---------------------------------------------------------------|
A|---------------------------------------------------------------|
E|--3p0-0-0--0-0--3--3--3--3--3p0-0-0--0-0--2--2--2--2-----------|



G|---------------------------------------------------------------|
D|-------------------------------------------------5/7-----------|
A|---------------------------5---3---0---5-5--5--3-----------x---|
E|--3p0-0-0--0-0--1--1--1--1----------------------------------3--|



Rhythm Fig. 3c

G|---------------------------------------------------------------|
D|---------------------------------------------------------------|
A|---------------------------------------------------------------|
E|--3p0-0-0--0-0--3--3--3--3--3p0-0-0--0-0--2--2--2--2-----------|



G|---------------------------------------------------------------|
D|---------------------------------------------------------------|
A|-----------------------------5---3---0---5---------------------|
E|--3p0-0-0--0-0--1--1--1--1-------------------0--1--------------|



Rhythm Fig. 3d

G|---------------------------------------------------------------|
D|---------------------------------------------------------------|
A|---------------------------------------------------------------|
E|--3p0-0-0--0-0--3--3--3--3--3p0-0-0--0-0--2--2--2--2-----------|



G|-----------------------------7----5p4-------7-5----------------|
D|---------------------------------------7p5---------------------|
A|---------------------------------------------------------------|
E|--3p0-0-0--0-0--1--1--1--1-------------------------------------|




Rhythm Fig. 3e

G|---------------------------------------------------------------|
D|---------------------------------------------------------------|
A|---------------------------------------------------------------|
E|--3p0-0-0--0-0--3--3--3--3--3p0-0-0--0-0--2--2--2--2-----------|



G|---------------------------------------------------------------|
D|---------------------------------------------------------------|
A|--------------------------------5---5---3---5--3---------------|
E|--3p0-0-0--0-0--1--1--1--1--3----------------------------------|




Rhythm Fig. 3f

G|---------------------------------------------------------------|
D|---------------------------------------------------------------|
A|---------------------------------------------------------------|
E|--3p0-0-0--0-0--3--3--3--3--3p0-0-0--0-0--2--2--2--2-----------|



G|---------------------------------------------------------------|
D|---------------------------------------------------------------|
A|----------------------------(5)--------------------------------|
E|--3p0-0-0--0-0--1--1--1--1-------------------------------------|




Rhythm Fig. 4

G|---------------------------------------------------------------|
D|---------------------------------------------------------------|
A|---------------------------------------------------------------|
E|--0h2-2-2--2--0-2--2--2-----0h2-2-2--2--0-2--2--4--------------|



G|---------------------------------------------------------------|
D|---------------------------------------------------------------|
A|---------------------------------------------------------------|
E|--0h2-2-2--2--0-2--2--3-----3p0-0-0---3p0-0-0--x-0--1----------|



G|----------------------------------------14--12-----------------|
D|--------------x-2h4-----------12-------------------------------|
A|---------------------------------------------------------------|
E|--0h2-2-2--2---------------------------------------------------|
   < - - - 3x - - - >



Rhythm Fig. 5

G|---------------------------------------------------------------|
D|---------------------------------------------------------------|
A|--3p0-0-0--0-3p0-0-0--0-2p0-3p0--3p0-0-0--0-3p0-0-0--0-3p0-5p0-|
E|---------------------------------------------------------------|
   < - - - - - - - - - - - - 3x - - - - - - - - - - - - - - - - >


G|---------------------------------------------------------------|
D|---------------------------------------------------------------|
A|--3p0-0-0--0-3p0-0-0--0-2p0-3p0--0-12--0-10--0-9--0-7--5--7----|
E|---------------------------------------------------------------|



G|---------------------------------------------------------------|
D|---------------------------------------------------------------|
A|--3p0-0-0--0-3p0-0-0--0-2p0-3p0--3p0-0-0--0-3p0-0-0--0-3p0-5p0-|
E|---------------------------------------------------------------|
   < - - - - - - - - - - - - 3x - - - - - - - - - - - - - - - - >


G|---------------------------------------------------------------|
D|---------------------------------------------------------------|
A|--3p0-0-0--0-3p0-0-0--0-2p0-3p0------3---0---3---5--3----------|
E|---------------------------------3-----------------------------|



Rhythm Fig. 6

G|----------------------------------------------------12---------|
D|------------------------------------------------14------14-----|
A|--7------------------------------------------------------------|
E|---------------0--0-0-----------0--0-0--0----------------------|



G|---------------------------------------------------------------|
D|---------------------------------------------------------------|
A|---------------------------------------------------------------|
E|--0-------------0--------------/12---/12-----/12-/12-----------|
                                 P.M. - - - - - - - - >


Rhythm Fig. 7

G|---------------------------------------------------------------|
D|---------------------------------------------------------------|
A|--3p0-0-0--0-3p0-0-0--0-2p0-3p0--3p0-0-0--0-3p0-0-0--0-3p0-5p0-|
E|---------------------------------------------------------------|



G|---------------------------------------------------------------|
D|---------------------------------------------------------------|
A|--3p0-0-0--0-3p0-0-0--0-2p0-3p0--3p0-0-0--0-3p0----------------|
E|------------------------------------------------2--2--3--3-----|



G|---------------------------------------------------------------|
D|---------------------------------------------------------------|
A|--3p0-0-0--0-3p0-0-0--0-2p0-3p0--3p0-0-0--0-3p0-0-0--0-3p0-5p0-|
E|---------------------------------------------------------------|



G|------------------------------------------------------x-7/-----|
D|------------------------------------------------5-5------------|
A|--3p0-0-0--0-3p0-0-0--0-2p0-3p0--3p0-0-0--0-3p0----------------|
E|---------------------------------------------------------------|
  development and support by
dmitry ivanov