rock
 
|tablatures   |lyrics   |discussion forums   |more tabs @ XGuitar.com

Kiss tabs

New York Groove guitar tab

New York Groove by Ace Frehley
From Ace's solo album w/KISS
--------------------------------------------------------------------



   intro
e:---------------------------------------------------------------------------|
B:--------------------------------------17/x---------------------17/x--------|
G:--------------------------------------16/x--9-x-9-xx-9-xx-9-9--16/x--9-x-9-|
D:--------------------------------------14/x--9-x-9-xx-9-xx-9-9--14/x--9-x-9-|
A:----7-x7-x7-x-x7-7--x-x7-x7-x7--x-x7--------7-x-7-xx-7-xx-7-7--------7-x-7-|
E:--------------------------------------------0---0----0----0-0--------0---0-|





e:---------------------------------------------------------------------------|
B:-------------17/x---------------------17/x----------------15-----14--12----|
G:xx-9-xx-9-9--16/x--9-x-9-xx-9-xx-9-9--16/x--9-x-9-xx-9----15/16--14--12/13-|
D:xx-9-xx-9-9--14/x--9-x-9-xx-9-xx-9-9--14/x--9-x-9-xx-9---------------------|
A:xx-7-xx-7-7--------7-x-7-xx-7-xx-7-7--------7-x-7-xx-7---------------------|
E:---0----0-0--------0---0----0----0-0--------0---0----0---------------------|




     "Many years since..."        "...time away..."      "To the left..."
e:---------------------------------------------------------------------------|
B:---------------------------------------------------------------------------|
G:-----9-x-9-xx-9-xx-9-9------------8-x-8-xx-8-xx-8-8-----6-x-6-xx-6-xx-6-6--|
D:-----9-x-9-xx-9-xx-9-9------------9-x-9-xx-9-xx-9-9-----7-x-7-xx-7-xx-7-7--|
A:-----7-x-7-xx-7-xx-7-7------------9-x-9-xx-9-xx-9-9-----7-x-7-xx-7-xx-7-7--|
E:-----0---0----0----0-0------------7---7----7----7-7-----5---5----5----5-5--|
             repeat

                                                   

    "And it's outta..."      "In the dead..."
e:------------------------------------------------|
B:------------------------------------------------|
G:----9-x-9-xx-9-xx-9-9-------8-x-8-xx-8-xx-8-8---|
D:----9-x-9-xx-9-xx-9-9-------9-x-9-xx-9-xx-9-9---|
A:----7-x-7-xx-7-xx-7-7-------9-x-9-xx-9-xx-9-9---|
E:----0---0----0----0-0-------7---7----7----7-7---|




    "Here I am, again in the city..."
e:----------------------------------------------------------------|
B:------------------------------------9--9-9-9-9-9-9--10--7--9----|
G:------------------------------------9--9-9-9-9-9-9--9---7--9----|
D:------------------------------------9--9-9-9-9-9-9------7--9----|
A:------------------------------------7---------------------------|
E:------------------------------------0---------------------------|




     "I'm back..."       "...groove..."
e:----------------------------------------------------------------|
B:----------------------------------------------------------------|
G:-----------------9~-----------6----6----6------8-8-8--9----9~---|
D:-----------------9~-----------7----7----7------9-9-9--9----9~---|
A:-----------------7~-----------7----7----7------9-9-9--7----7~---|
E:-----------------0~-----------5----5----5------7-7-7--0----0~---|




  2nd verse-move everything up one fret  "...of my cadillac..."
e:---------------------------------------------------------------------------|
B:----------------------------------------------------------------13-----15--|
G:----------------------------------------------------------------13/14--15--|
D:---------------------------------------------------------------------------|
A:------------------------------------------(8)------------------------------|
E:---------------------------------------------------------------------------|


                          
                          

e:-----------------------|
B:13-----16--15--13------|
G:13/14--17--15--13/14---|
D:-----------------------|
A:-----------------------|
E:-----------------------|




    outtro
e:--------12-----------------------------------------------------|
B:--------14/12--14-----13-----13------------7/6--6----8----8----|
G:---------------14/15--13/14--13/14----6/7--8/7--6/7--8/9--8/9--|
D:---------------------------------------------------------------|
A:---------------------------------------------------------------|
E:---------------------------------------------------------------|

  development and support by
dmitry ivanov