rock
 
|tablatures   |lyrics   |discussion forums   |more tabs @ XGuitar.com

Kiss tabs

Mr. Speed guitar tab

Mr. Speed by KISS
From the album Rock 'n' Roll Over
--------------------------------------------------------------------



  intro(part 1)
e:---------------------------------------------------------------------------|
B:--9--9--------11---------7--7-------10-------------------------------------|
G:--9--9--11/13-13-11-9----7--7--9/11-11-9--7----2--2--4--2--4b(5)--2---4--4-|
D:--9--9-----------11-9----7--7----------9--7----2--2--4--2--4b(5)--2---4--4-|
A:---------------------------------------------------------------------------|
E:---------------------------------------------------------------------------|





e:---------------------------------------------------------------------------|
B:----------------------9--9--------11----------7--7-------10----------------|
G:-6--4--6b(7)--4-------9--9--11/13-13--11-9----7--7--9/11-11--9--7----2--2--|
D:-6--4--6b(7)--4-------9--9------------11-9----7--7-----------9--7----2--2--|
A:---------------------------------------------------------------------------|
E:---------------------------------------------------------------------------|




                                              verses(part 2)
e:---------------------------------------------------------------------------|
B:---------------------------------------------------------------------------|
G:4--2--4b(5)--2----4--4--6--4--6b(7)--4------9--9------9------9-9----9--11b(|
D:4--2--4b(5)--2----4--4--6--4--6b(7)--4------9--9--11--9--11--9-9-11-9--11b(|
A:--------------------------------------------------11-----11------11--------|
E:---------------------------------------------------------------------------|




                                      "You need lovin'........."
e:---------------------------------------------------------------------------|
B:------------------------------------------------------------------------7--|
G:12)----9--9------9------9-9----9--11b(12)----9--9------9-----4--4--6/8--8--|
D:12)----9--9--11--9--11--9-9-11-9--11b(12)----9--9--11--9-----4--4----------|
A:-------------11-----11------11---------------------11----------------------|
E:---------------------------------------------------------------------------|




                                       "Yeah its true......."
e:---------------------------------------------------------------------------|
B:--------------------------------------------------------------------------7|
G:6--4-----9--9-----9------9-9----9--11b(13)------9--9-----9-----4--4--6/8--8|
D:6--4-----9--9--11-9--11--9-9-11-9--11b(12)------9--9--11-9-----4--4--------|
A:---------------11----11------11-----------------------11-------------------|
E:---------------------------------------------------------------------------|





e:---------------------------------------------------------------------------|
B:--------------------------------------------9--9--------12----------4--4---|
G:--6--4----2--2-----2-----2-2---2-----2------9--9--11/13-13--11-9----4--4--6|
D:--6--4----2--2--4--2--4--2-2-4-2--4--2------9--9------------11-9----4--4---|
A:----------------4-----4------4----4----------------------------------------|
E:---------------------------------------------------------------------------|





e:---------------------------------------------------------------------------|
B:---7---------4--4--6------------9--9--------12------------4--4-------7-----|
G:/8-8--6--4---4--4--6-6--4--2----9--9--11/13-13--11-9------4--4--6/8--8--6--|
D:------6--4---4--4--6-6--4--2----9--9------------11-9------4--4----------6--|
A:---------------------4--2--0-----------------------------------------------|
E:---------------------------------------------------------------------------|




                  to chorus   "Well ya know.."   to chorus(part 1)     solo
e:---------------------------------------------------------------------------|
B:---------------------------------------------------------------------------|
G:4------2--2-----2-----2-2---2-----2----------------------------------11b(13|
D:4------2--2--4--2--4--2-2-4-2--4--2----------------------------------------|
A:-------------4-----4------4----4-------------------------------------------|
E:---------------------------------------------------------------------------|





e:---------------------------------------------------------------------------|
B:----------------------------------------------------9--12b(14)-9--12b(14)~~|
G:)---11b(13)---11b(13)---11b(13)---9--11--9---------------------------------|
D:--------------------------------------------11-9-11------------------------|
A:---------------------------------------------------------------------------|
E:---------------------------------------------------------------------------|





e:-----------9----------9---9----------9----------9---9----------9----------9|
B:-----------9----------9---9----------9----------9---9----------9----------9|
G:---11b(13)----11b(13)--------11b(13)----11b(13)--------11b(13)----11b(13)--|
D:---------------------------------------------------------------------------|
A:---------------------------------------------------------------------------|
E:---------------------------------------------------------------------------|


                                                        

                                                to intro
e:------------------------------------------------------|
B:---12--11--9------------------------------------------|
G:--------------12-11-9-----11b(13)-11-9--11~-----------|
D:----------------------11------------------------------|
A:------------------------------------------------------|
E:------------------------------------------------------|


  development and support by
dmitry ivanov